  0
SECTION
  2
HEADER
  9
$ACADVER
  1
AC1021
  9
$ACADMAINTVER
 70
    25
  9
$DWGCODEPAGE
  3
ANSI_1252
  9
$INSBASE
 10
0.0
 20
0.0
 30
0.0
  9
$EXTMIN
 10
1.000000000000000E+20
 20
1.000000000000000E+20
 30
1.000000000000000E+20
  9
$EXTMAX
 10
-1.000000000000000E+20
 20
-1.000000000000000E+20
 30
-1.000000000000000E+20
  9
$LIMMIN
 10
0.0
 20
0.0
  9
$LIMMAX
 10
12.0
 20
9.0
  9
$ORTHOMODE
 70
     0
  9
$REGENMODE
 70
     1
  9
$FILLMODE
 70
     1
  9
$QTEXTMODE
 70
     0
  9
$MIRRTEXT
 70
     1
  9
$LTSCALE
 40
1.0
  9
$ATTMODE
 70
     1
  9
$TEXTSIZE
 40
0.2
  9
$TRACEWID
 40
0.05
  9
$TEXTSTYLE
  7
Standard
  9
$CLAYER
  8
Layer 01
  9
$CELTYPE
  6
ByLayer
  9
$CECOLOR
 62
   256
  9
$CELTSCALE
 40
1.0
  9
$DISPSILH
 70
     0
  9
$DIMSCALE
 40
1.0
  9
$DIMASZ
 40
0.18
  9
$DIMEXO
 40
0.0625
  9
$DIMDLI
 40
0.38
  9
$DIMRND
 40
0.0
  9
$DIMDLE
 40
0.0
  9
$DIMEXE
 40
0.18
  9
$DIMTP
 40
0.0
  9
$DIMTM
 40
0.0
  9
$DIMTXT
 40
0.18
  9
$DIMCEN
 40
0.09
  9
$DIMTSZ
 40
0.0
  9
$DIMTOL
 70
     0
  9
$DIMLIM
 70
     0
  9
$DIMTIH
 70
     1
  9
$DIMTOH
 70
     1
  9
$DIMSE1
 70
     0
  9
$DIMSE2
 70
     0
  9
$DIMTAD
 70
     0
  9
$DIMZIN
 70
     0
  9
$DIMBLK
  1

  9
$DIMASO
 70
     1
  9
$DIMSHO
 70
     1
  9
$DIMPOST
  1

  9
$DIMAPOST
  1

  9
$DIMALT
 70
     0
  9
$DIMALTD
 70
     2
  9
$DIMALTF
 40
25.4
  9
$DIMLFAC
 40
1.0
  9
$DIMTOFL
 70
     0
  9
$DIMTVP
 40
0.0
  9
$DIMTIX
 70
     0
  9
$DIMSOXD
 70
     0
  9
$DIMSAH
 70
     0
  9
$DIMBLK1
  1

  9
$DIMBLK2
  1

  9
$DIMSTYLE
  2
STANDARD_ACAD
  9
$DIMCLRD
 70
     0
  9
$DIMCLRE
 70
     0
  9
$DIMCLRT
 70
     0
  9
$DIMTFAC
 40
1.0
  9
$DIMGAP
 40
0.09
  9
$DIMJUST
 70
     0
  9
$DIMSD1
 70
     0
  9
$DIMSD2
 70
     0
  9
$DIMTOLJ
 70
     1
  9
$DIMTZIN
 70
     0
  9
$DIMALTZ
 70
     0
  9
$DIMALTTZ
 70
     0
  9
$DIMUPT
 70
     0
  9
$DIMDEC
 70
     4
  9
$DIMTDEC
 70
     4
  9
$DIMALTU
 70
     2
  9
$DIMALTTD
 70
     2
  9
$DIMTXSTY
  7
Standard
  9
$DIMAUNIT
 70
     0
  9
$DIMADEC
 70
     0
  9
$DIMALTRND
 40
0.0
  9
$DIMAZIN
 70
     0
  9
$DIMDSEP
 70
    46
  9
$DIMATFIT
 70
     3
  9
$DIMFRAC
 70
     0
  9
$DIMLDRBLK
  1

  9
$DIMLUNIT
 70
     2
  9
$DIMLWD
 70
    -2
  9
$DIMLWE
 70
    -2
  9
$DIMTMOVE
 70
     2
  9
$DIMFXL
 40
1.0
  9
$DIMFXLON
 70
     0
  9
$DIMJOGANG
 40
0.7853981633974483
  9
$DIMTFILL
 70
     0
  9
$DIMTFILLCLR
 70
     0
  9
$DIMARCSYM
 70
     0
  9
$DIMLTYPE
  6

  9
$DIMLTEX1
  6

  9
$DIMLTEX2
  6

  9
$LUNITS
 70
     2
  9
$LUPREC
 70
     3
  9
$SKETCHINC
 40
0.1
  9
$FILLETRAD
 40
0.5
  9
$AUNITS
 70
     0
  9
$AUPREC
 70
     0
  9
$MENU
  1
.
  9
$ELEVATION
 40
0.0
  9
$PELEVATION
 40
0.0
  9
$THICKNESS
 40
0.0
  9
$LIMCHECK
 70
     0
  9
$CHAMFERA
 40
0.0
  9
$CHAMFERB
 40
0.0
  9
$CHAMFERC
 40
0.0
  9
$CHAMFERD
 40
0.0
  9
$SKPOLY
 70
     0
  9
$TDCREATE
 40
2458941.519763854
  9
$TDUCREATE
 40
2458941.728097187
  9
$TDUPDATE
 40
2458941.519782211
  9
$TDUUPDATE
 40
2458941.728115544
  9
$TDINDWG
 40
0.0000000116
  9
$TDUSRTIMER
 40
0.0000000116
  9
$USRTIMER
 70
     1
  9
$ANGBASE
 50
0.0
  9
$ANGDIR
 70
     0
  9
$PDMODE
 70
     0
  9
$PDSIZE
 40
0.0
  9
$PLINEWID
 40
0.0
  9
$SPLFRAME
 70
     0
  9
$SPLINETYPE
 70
     6
  9
$SPLINESEGS
 70
     8
  9
$HANDSEED
  5
168
  9
$SURFTAB1
 70
     6
  9
$SURFTAB2
 70
     6
  9
$SURFTYPE
 70
     6
  9
$SURFU
 70
     6
  9
$SURFV
 70
     6
  9
$UCSBASE
  2

  9
$UCSNAME
  2

  9
$UCSORG
 10
0.0
 20
0.0
 30
0.0
  9
$UCSXDIR
 10
1.0
 20
0.0
 30
0.0
  9
$UCSYDIR
 10
0.0
 20
1.0
 30
0.0
  9
$UCSORTHOREF
  2

  9
$UCSORTHOVIEW
 70
     0
  9
$UCSORGTOP
 10
0.0
 20
0.0
 30
0.0
  9
$UCSORGBOTTOM
 10
0.0
 20
0.0
 30
0.0
  9
$UCSORGLEFT
 10
0.0
 20
0.0
 30
0.0
  9
$UCSORGRIGHT
 10
0.0
 20
0.0
 30
0.0
  9
$UCSORGFRONT
 10
0.0
 20
0.0
 30
0.0
  9
$UCSORGBACK
 10
0.0
 20
0.0
 30
0.0
  9
$PUCSBASE
  2

  9
$PUCSNAME
  2

  9
$PUCSORG
 10
0.0
 20
0.0
 30
0.0
  9
$PUCSXDIR
 10
1.0
 20
0.0
 30
0.0
  9
$PUCSYDIR
 10
0.0
 20
1.0
 30
0.0
  9
$PUCSORTHOREF
  2

  9
$PUCSORTHOVIEW
 70
     0
  9
$PUCSORGTOP
 10
0.0
 20
0.0
 30
0.0
  9
$PUCSORGBOTTOM
 10
0.0
 20
0.0
 30
0.0
  9
$PUCSORGLEFT
 10
0.0
 20
0.0
 30
0.0
  9
$PUCSORGRIGHT
 10
0.0
 20
0.0
 30
0.0
  9
$PUCSORGFRONT
 10
0.0
 20
0.0
 30
0.0
  9
$PUCSORGBACK
 10
0.0
 20
0.0
 30
0.0
  9
$USERI1
 70
     0
  9
$USERI2
 70
     0
  9
$USERI3
 70
     0
  9
$USERI4
 70
     0
  9
$USERI5
 70
     0
  9
$USERR1
 40
0.0
  9
$USERR2
 40
0.0
  9
$USERR3
 40
0.0
  9
$USERR4
 40
0.0
  9
$USERR5
 40
0.0
  9
$WORLDVIEW
 70
     1
  9
$SHADEDGE
 70
     3
  9
$SHADEDIF
 70
    70
  9
$TILEMODE
 70
     1
  9
$MAXACTVP
 70
    64
  9
$PINSBASE
 10
0.0
 20
0.0
 30
0.0
  9
$PLIMCHECK
 70
     0
  9
$PEXTMIN
 10
1.000000000000000E+20
 20
1.000000000000000E+20
 30
1.000000000000000E+20
  9
$PEXTMAX
 10
-1.000000000000000E+20
 20
-1.000000000000000E+20
 30
-1.000000000000000E+20
  9
$PLIMMIN
 10
0.0
 20
0.0
  9
$PLIMMAX
 10
12.0
 20
9.0
  9
$UNITMODE
 70
     0
  9
$VISRETAIN
 70
     1
  9
$PLINEGEN
 70
     0
  9
$PSLTSCALE
 70
     1
  9
$TREEDEPTH
 70
  3020
  9
$CMLSTYLE
  2
Standard
  9
$CMLJUST
 70
     0
  9
$CMLSCALE
 40
1.0
  9
$PROXYGRAPHICS
 70
     1
  9
$MEASUREMENT
 70
     1
  9
$CELWEIGHT
370
    -1
  9
$ENDCAPS
280
     0
  9
$JOINSTYLE
280
     0
  9
$LWDISPLAY
290
     0
  9
$INSUNITS
 70
     4
  9
$HYPERLINKBASE
  1

  9
$STYLESHEET
  1

  9
$XEDIT
290
     1
  9
$CEPSNTYPE
380
     0
  9
$PSTYLEMODE
290
     1
  9
$FINGERPRINTGUID
  2
{e4b46aee-89dd-4ee8-a6f2-c04c6f58fd93}
  9
$VERSIONGUID
  2
{FAEB1C32-E019-11D5-929B-00C0DF256EC4}
  9
$EXTNAMES
290
     1
  9
$PSVPSCALE
 40
0.0
  9
$OLESTARTUP
290
     0
  9
$SORTENTS
280
   127
  9
$INDEXCTL
280
     0
  9
$HIDETEXT
280
     1
  9
$XCLIPFRAME
290
     0
  9
$HALOGAP
280
     0
  9
$OBSCOLOR
 70
   257
  9
$OBSLTYPE
280
     0
  9
$INTERSECTIONDISPLAY
280
     0
  9
$INTERSECTIONCOLOR
 70
   257
  9
$DIMASSOC
280
     2
  9
$PROJECTNAME
  1

  9
$CAMERADISPLAY
290
     0
  9
$LENSLENGTH
 40
50.0
  9
$CAMERAHEIGHT
 40
0.0
  9
$STEPSPERSEC
 40
2.0
  9
$STEPSIZE
 40
6.0
  9
$3DDWFPREC
 40
2.0
  9
$PSOLWIDTH
 40
0.25
  9
$PSOLHEIGHT
 40
4.0
  9
$LOFTANG1
 40
1.570796326794897
  9
$LOFTANG2
 40
1.570796326794897
  9
$LOFTMAG1
 40
0.0
  9
$LOFTMAG2
 40
0.0
  9
$LOFTPARAM
 70
     7
  9
$LOFTNORMALS
280
     1
  9
$LATITUDE
 40
37.795
  9
$LONGITUDE
 40
-122.394
  9
$NORTHDIRECTION
 40
0.0
  9
$TIMEZONE
 70
 -8000
  9
$LIGHTGLYPHDISPLAY
280
     1
  9
$TILEMODELIGHTSYNCH
280
     1
  9
$CMATERIAL
347
44
  9
$SOLIDHIST
280
     0
  9
$SHOWHIST
280
     1
  9
$DWFFRAME
280
     2
  9
$DGNFRAME
280
     2
  9
$REALWORLDSCALE
290
     1
  9
$INTERFERECOLOR
 62
   256
  9
$CSHADOW
280
     0
  9
$SHADOWPLANELOCATION
 40
0.0
  0
ENDSEC
  0
SECTION
  2
CLASSES
  0
CLASS
  1
ACDBDICTIONARYWDFLT
  2
AcDbDictionaryWithDefault
  3
ObjectDBX Classes
 90
        0
 91
        3
280
     0
281
     0
  0
CLASS
  1
VISUALSTYLE
  2
AcDbVisualStyle
  3
ObjectDBX Classes
 90
     4095
 91
        3
280
     0
281
     0
  0
CLASS
  1
MATERIAL
  2
AcDbMaterial
  3
ObjectDBX Classes
 90
     1153
 91
        3
280
     0
281
     0
  0
CLASS
  1
SCALE
  2
AcDbScale
  3
ObjectDBX Classes
 90
     1153
 91
        3
280
     0
281
     0
  0
CLASS
  1
TABLESTYLE
  2
AcDbTableStyle
  3
ObjectDBX Classes
 90
     4095
 91
        3
280
     0
281
     0
  0
CLASS
  1
MLEADERSTYLE
  2
AcDbMLeaderStyle
  3
ACDB_MLEADERSTYLE_CLASS
 90
     4095
 91
        3
280
     0
281
     0
  0
CLASS
  1
SUN
  2
AcDbSun
  3
SCENEOE
 90
     1153
 91
        3
280
     0
281
     0
  0
CLASS
  1
DICTIONARYVAR
  2
AcDbDictionaryVar
  3
ObjectDBX Classes
 90
        0
 91
        3
280
     0
281
     0
  0
CLASS
  1
CELLSTYLEMAP
  2
AcDbCellStyleMap
  3
ObjectDBX Classes
 90
     1152
 91
        3
280
     0
281
     0
  0
ENDSEC
  0
SECTION
  2
TABLES
  0
TABLE
  2
VPORT
  5
8
330
0
100
AcDbSymbolTable
 70
     1
  0
VPORT
  5
29
330
8
100
AcDbSymbolTableRecord
100
AcDbViewportTableRecord
  2
*Active
 70
     0
 10
0.0
 20
0.0
 11
1.0
 21
1.0
 12
10.42990654205607
 22
4.5
 13
0.0
 23
0.0
 14
0.5
 24
0.5
 15
0.5
 25
0.5
 16
0.0
 26
0.0
 36
1.0
 17
0.0
 27
0.0
 37
0.0
 40
9.0
 41
1.972972972850329
 42
50.0
 43
0.0
 44
0.0
 50
0.0
 51
0.0
 71
     0
 72
   100
 73
     1
 74
     3
 75
     0
 76
     0
 77
     0
 78
     0
281
     0
 65
     1
110
0.0
120
0.0
130
0.0
111
1.0
121
0.0
131
0.0
112
0.0
122
1.0
132
0.0
 79
     0
146
0.0
348
2F
 60
     3
 61
     5
292
     1
282
     1
141
0.0
142
0.0
 63
   250
361
6D
  0
ENDTAB
  0
TABLE
  2
LTYPE
  5
5
330
0
100
AcDbSymbolTable
 70
     1
  0
LTYPE
  5
14
330
5
100
AcDbSymbolTableRecord
100
AcDbLinetypeTableRecord
  2
ByBlock
 70
     0
  3

 72
    65
 73
     0
 40
0.0
  0
LTYPE
  5
15
330
5
100
AcDbSymbolTableRecord
100
AcDbLinetypeTableRecord
  2
ByLayer
 70
     0
  3

 72
    65
 73
     0
 40
0.0
  0
LTYPE
  5
16
330
5
100
AcDbSymbolTableRecord
100
AcDbLinetypeTableRecord
  2
Continuous
 70
     0
  3
Solid line
 72
    65
 73
     0
 40
0.0
  0
ENDTAB
  0
TABLE
  2
LAYER
  5
2
330
0
100
AcDbSymbolTable
 70
     2
  0
LAYER
  5
10
330
2
100
AcDbSymbolTableRecord
100
AcDbLayerTableRecord
  2
0
 70
     0
 62
     7
  6
Continuous
370
    -3
390
F
347
46
  0
LAYER
  5
6E
330
2
100
AcDbSymbolTableRecord
100
AcDbLayerTableRecord
  2
Layer 01
 70
     0
 62
    18
420
        0
  6
Continuous
370
    -3
390
F
347
46
  0
ENDTAB
  0
TABLE
  2
STYLE
  5
3
330
0
100
AcDbSymbolTable
 70
     1
  0
STYLE
  5
11
330
3
100
AcDbSymbolTableRecord
100
AcDbTextStyleTableRecord
  2
Standard
 70
     0
 40
0.0
 41
1.0
 50
0.0
 71
     0
 42
0.2
  3
txt
  4

  0
ENDTAB
  0
TABLE
  2
VIEW
  5
6
330
0
100
AcDbSymbolTable
 70
     0
  0
ENDTAB
  0
TABLE
  2
UCS
  5
7
330
0
100
AcDbSymbolTable
 70
     0
  0
ENDTAB
  0
TABLE
  2
APPID
  5
9
330
0
100
AcDbSymbolTable
 70
     2
  0
APPID
  5
12
330
9
100
AcDbSymbolTableRecord
100
AcDbRegAppTableRecord
  2
ACAD
 70
     0
  0
APPID
  5
160
330
9
100
AcDbSymbolTableRecord
100
AcDbRegAppTableRecord
  2
ACAD_MLEADERVER
 70
     0
  0
ENDTAB
  0
TABLE
  2
DIMSTYLE
  5
A
330
0
100
AcDbSymbolTable
 70
     1
100
AcDbDimStyleTable
  0
DIMSTYLE
105
27
330
A
100
AcDbSymbolTableRecord
100
AcDbDimStyleTableRecord
  2
STANDARD_ACAD
 70
     0
178
     0
340
11
  0
ENDTAB
  0
TABLE
  2
BLOCK_RECORD
  5
1
330
0
100
AcDbSymbolTable
 70
     1
  0
BLOCK_RECORD
  5
1F
330
1
100
AcDbSymbolTableRecord
100
AcDbBlockTableRecord
  2
*Model_Space
340
22
 70
     0
280
     1
281
     0
  0
BLOCK_RECORD
  5
1B
330
1
100
AcDbSymbolTableRecord
100
AcDbBlockTableRecord
  2
*Paper_Space
340
1E
 70
     0
280
     1
281
     0
  0
BLOCK_RECORD
  5
23
330
1
100
AcDbSymbolTableRecord
100
AcDbBlockTableRecord
  2
*Paper_Space0
340
26
 70
     0
280
     1
281
     0
  0
ENDTAB
  0
ENDSEC
  0
SECTION
  2
BLOCKS
  0
BLOCK
  5
20
330
1F
100
AcDbEntity
  8
0
100
AcDbBlockBegin
  2
*Model_Space
 70
     0
 10
0.0
 20
0.0
 30
0.0
  3
*Model_Space
  1

  0
ENDBLK
  5
21
330
1F
100
AcDbEntity
  8
0
100
AcDbBlockEnd
  0
BLOCK
  5
1C
330
1B
100
AcDbEntity
 67
     1
  8
0
100
AcDbBlockBegin
  2
*Paper_Space
 70
     0
 10
0.0
 20
0.0
 30
0.0
  3
*Paper_Space
  1

  0
ENDBLK
  5
1D
330
1B
100
AcDbEntity
 67
     1
  8
0
100
AcDbBlockEnd
  0
BLOCK
  5
24
330
23
100
AcDbEntity
  8
0
100
AcDbBlockBegin
  2
*Paper_Space0
 70
     0
 10
0.0
 20
0.0
 30
0.0
  3
*Paper_Space0
  1

  0
ENDBLK
  5
25
330
23
100
AcDbEntity
  8
0
100
AcDbBlockEnd
  0
ENDSEC
  0
SECTION
  2
ENTITIES
  0
SPLINE
  5
6F
330
1F
100
AcDbEntity
  8
Layer 01
100
AcDbSpline
210
0.0
220
0.0
230
1.0
 70
     8
 71
     2
 72
    86
 73
    83
 74
     0
 42
0.000000001
 43
0.0000000001
 40
19.91084332994227
 40
19.91084332994227
 40
19.91084332994227
 40
21.0
 40
21.0
 40
22.0
 40
22.0
 40
23.0
 40
23.0
 40
24.0
 40
24.0
 40
25.0
 40
25.0
 40
26.0
 40
26.0
 40
27.0
 40
27.0
 40
28.0
 40
28.0
 40
29.0
 40
29.0
 40
30.0
 40
30.0
 40
31.0
 40
31.0
 40
32.0
 40
32.0
 40
33.0
 40
33.0
 40
34.0
 40
34.0
 40
35.0
 40
35.0
 40
36.0
 40
36.0
 40
37.0
 40
37.0
 40
38.0
 40
38.0
 40
39.0
 40
39.0
 40
40.0
 40
40.0
 40
41.0
 40
41.0
 40
42.0
 40
42.0
 40
43.0
 40
43.0
 40
44.0
 40
44.0
 40
45.0
 40
45.0
 40
46.0
 40
46.0
 40
47.0
 40
47.0
 40
48.0
 40
48.0
 40
49.0
 40
49.0
 40
50.0
 40
50.0
 40
51.0
 40
51.0
 40
52.0
 40
52.0
 40
53.0
 40
53.0
 40
54.0
 40
54.0
 40
55.0
 40
55.0
 40
56.0
 40
56.0
 40
57.0
 40
57.0
 40
58.0
 40
58.0
 40
59.0
 40
59.0
 40
60.0
 40
60.0
 40
61.52577248950007
 40
61.52577248950007
 40
61.52577248950007
 10
-11.40209576608771
 20
-33.69664187911195
 30
0.0
 10
-23.33309552194709
 20
-35.65014262679261
 30
0.0
 10
-35.26409527780646
 20
-37.60364337447328
 30
0.0
 10
-36.14009472849006
 20
-37.78064342024965
 30
0.0
 10
-37.01609417917365
 20
-37.95764346602601
 30
0.0
 10
-37.88209530832404
 20
-38.19614406111879
 30
0.0
 10
-38.74809643747443
 20
-38.43464465621156
 30
0.0
 10
-39.59409520151252
 20
-38.73664470198793
 30
0.0
 10
-40.4400939655506
 20
-39.03864474776429
 30
0.0
 10
-41.25909420969123
 20
-39.40214343550844
 30
0.0
 10
-42.07809445383185
 20
-39.76564212325258
 30
0.0
 10
-42.86209485056037
 20
-40.18614383223695
 30
0.0
 10
-43.64609524728888
 20
-40.60664554122133
 30
0.0
 10
-44.38509556772345
 20
-41.08014483931703
 30
0.0
 10
-45.12409588815802
 20
-41.55364413741273
 30
0.0
 10
-45.81409642221564
 20
-42.07664294722719
 30
0.0
 10
-46.50409695627326
 20
-42.59964175704164
 30
0.0
 10
-47.13809582712287
 20
-43.16214175704164
 30
0.0
 10
-47.77209469797248
 20
-43.72464175704164
 30
0.0
 10
-49.72909543039435
 20
-45.60414309981508
 30
0.0
 10
-51.68609616281623
 20
-47.48364444258851
 30
0.0
 10
-52.63009640695685
 20
-46.71164317610902
 30
0.0
 10
-53.57409665109748
 20
-45.93964190962953
 30
0.0
 10
-52.31909558298224
 20
-44.73314280989808
 30
0.0
 10
-51.06409451486701
 20
-43.52664371016664
 30
0.0
 10
-51.44909474374884
 20
-43.12414355757875
 30
0.0
 10
-51.83409497263068
 20
-42.72164340499086
 30
0.0
 10
-54.52609631540412
 20
-42.72164340499086
 30
0.0
 10
-57.21809765817756
 20
-42.72164340499086
 30
0.0
 10
-60.70309826852912
 20
-46.07164378646058
 30
0.0
 10
-64.18809887888068
 20
-49.42164416793031
 30
0.0
 10
-64.0810966205799
 20
-51.75864406111879
 30
0.0
 10
-63.97409436227912
 20
-54.09564395430726
 30
0.0
 10
-63.51509472849006
 20
-54.57514377120179
 30
0.0
 10
-63.05609509470099
 20
-55.05464358809633
 30
0.0
 10
-61.80009457590216
 20
-53.84714313033265
 30
0.0
 10
-60.54409405710334
 20
-52.63964267256898
 30
0.0
 10
-59.59909436227912
 20
-53.41164393904847
 30
0.0
 10
-58.6540946674549
 20
-54.18364520552797
 30
0.0
 10
-60.60109707834357
 20
-56.05514522078676
 30
0.0
 10
-62.54809948923224
 20
-57.92664523604554
 30
0.0
 10
-62.93109890939826
 20
-58.39214511397523
 30
0.0
 10
-63.31409832956427
 20
-58.85764499190492
 30
0.0
 10
-63.46009823801154
 20
-59.12414355757875
 30
0.0
 10
-63.60609814645881
 20
-59.39064212325258
 30
0.0
 10
-63.23109814645881
 20
-61.88964267256898
 30
0.0
 10
-62.85609814645881
 20
-64.38864322188539
 30
0.0
 10
-62.63409802438849
 20
-64.61314197066469
 30
0.0
 10
-62.41209790231818
 20
-64.83764071944398
 30
0.0
 10
-62.16409680368537
 20
-65.03464313033265
 30
0.0
 10
-61.91609570505256
 20
-65.23164554122133
 30
0.0
 10
-61.64809414865607
 20
-65.39964480879945
 30
0.0
 10
-61.38009259225959
 20
-65.56764407637758
 30
0.0
 10
-61.09709546091193
 20
-65.70614429000062
 30
0.0
 10
-60.81409832956427
 20
-65.84464450362367
 30
0.0
 10
-58.99609753610724
 20
-66.56264300826234
 30
0.0
 10
-57.17809674265021
 20
-67.28064151290101
 30
0.0
 10
-55.31509587289924
 20
-67.92814441207094
 30
0.0
 10
-53.45209500314826
 20
-68.57564731124086
 30
0.0
 10
-51.54809567453498
 20
-69.15864367964906
 30
0.0
 10
-49.6440963459217
 20
-69.74164004805726
 30
0.0
 10
-47.70309636118049
 20
-70.26214023116273
 30
0.0
 10
-45.76209637643927
 20
-70.7826404142682
 30
0.0
 10
-43.79109570505256
 20
-71.24414248946351
 30
0.0
 10
-41.82009503366584
 20
-71.70564456465883
 30
0.0
 10
-39.82109448434943
 20
-72.11314578536195
 30
0.0
 10
-37.82209393503302
 20
-72.52064700606508
 30
0.0
 10
-35.80309483530158
 20
-72.8761462736432
 30
0.0
 10
-33.78409573557013
 20
-73.23164554122133
 30
0.0
 10
-31.74609562875861
 20
-73.5371455717389
 30
0.0
 10
-29.70809552194709
 20
-73.84264560225648
 30
0.0
 10
-27.65809533121222
 20
-74.10464282515687
 30
0.0
 10
-25.60809514047736
 20
-74.36664004805726
 30
0.0
 10
-23.55109498026007
 20
-74.58714099410219
 30
0.0
 10
-21.49409482004279
 20
-74.80764194014711
 30
0.0
 10
-19.43409535410041
 20
-74.99064441207094
 30
0.0
 10
-17.37409588815802
 20
-75.17364688399476
 30
0.0
 10
-15.31609627725715
 20
-75.32214541915101
 30
0.0
 10
-13.25809666635627
 20
-75.47064395430726
 30
0.0
 10
-11.20609614374274
 20
-75.58864398482484
 30
0.0
 10
-9.154095621129215
 20
-75.70664401534242
 30
0.0
 10
-7.11509558679694
 20
-75.79564471724672
 30
0.0
 10
-5.076095552464665
 20
-75.88464541915101
 30
0.0
  0
SPLINE
  5
70
330
1F
100
AcDbEntity
  8
Layer 01
100
AcDbSpline
210
0.0
220
0.0
230
1.0
 70
     8
 71
     2
 72
   790
 73
   787
 74
     0
 42
0.000000001
 43
0.0000000001
 40
-392.2283581824599
 40
-392.2283581824599
 40
-392.2283581824599
 40
-391.2302302010974
 40
-391.2302302010974
 40
-390.2321022197349
 40
-390.2321022197349
 40
-389.2339742383724
 40
-389.2339742383724
 40
-388.2358462570098
 40
-388.2358462570098
 40
-387.2377182756474
 40
-387.2377182756474
 40
-386.2395902942848
 40
-386.2395902942848
 40
-385.2414623129223
 40
-385.2414623129223
 40
-384.2433343315598
 40
-384.2433343315598
 40
-383.2452063501973
 40
-383.2452063501973
 40
-382.2470783688348
 40
-382.2470783688348
 40
-381.2489503874723
 40
-381.2489503874723
 40
-380.2508224061098
 40
-380.2508224061098
 40
-379.2526944247472
 40
-379.2526944247472
 40
-378.2545664433848
 40
-378.2545664433848
 40
-377.2564384620222
 40
-377.2564384620222
 40
-376.2583104806597
 40
-376.2583104806597
 40
-375.2601824992972
 40
-375.2601824992972
 40
-374.2620545179347
 40
-374.2620545179347
 40
-373.2639265365722
 40
-373.2639265365722
 40
-372.2657985552096
 40
-372.2657985552096
 40
-371.2676705738471
 40
-371.2676705738471
 40
-370.2695425924846
 40
-370.2695425924846
 40
-369.2714146111221
 40
-369.2714146111221
 40
-368.2732866297596
 40
-368.2732866297596
 40
-367.2751586483971
 40
-367.2751586483971
 40
-366.2770306670346
 40
-366.2770306670346
 40
-365.2789026856721
 40
-365.2789026856721
 40
-364.2807747043096
 40
-364.2807747043096
 40
-363.282646722947
 40
-363.282646722947
 40
-362.2845187415845
 40
-362.2845187415845
 40
-361.286390760222
 40
-361.286390760222
 40
-360.2882627788595
 40
-360.2882627788595
 40
-359.290134797497
 40
-359.290134797497
 40
-358.2920068161345
 40
-358.2920068161345
 40
-357.293878834772
 40
-357.293878834772
 40
-356.2957508534095
 40
-356.2957508534095
 40
-355.297622872047
 40
-355.297622872047
 40
-354.2994948906845
 40
-354.2994948906845
 40
-353.3013669093219
 40
-353.3013669093219
 40
-352.3032389279594
 40
-352.3032389279594
 40
-351.3051109465969
 40
-351.3051109465969
 40
-350.3069829652344
 40
-350.3069829652344
 40
-349.3088549838719
 40
-349.3088549838719
 40
-348.3107270025093
 40
-348.3107270025093
 40
-347.3125990211469
 40
-347.3125990211469
 40
-346.3144710397843
 40
-346.3144710397843
 40
-345.3163430584218
 40
-345.3163430584218
 40
-344.3182150770593
 40
-344.3182150770593
 40
-343.3200870956968
 40
-343.3200870956968
 40
-342.3219591143343
 40
-342.3219591143343
 40
-341.3238311329718
 40
-341.3238311329718
 40
-340.3257031516093
 40
-340.3257031516093
 40
-339.3275751702467
 40
-339.3275751702467
 40
-338.3294471888843
 40
-338.3294471888843
 40
-337.3313192075217
 40
-337.3313192075217
 40
-336.3331912261592
 40
-336.3331912261592
 40
-335.3350632447967
 40
-335.3350632447967
 40
-334.3369352634342
 40
-334.3369352634342
 40
-333.3388072820717
 40
-333.3388072820717
 40
-332.3406793007092
 40
-332.3406793007092
 40
-331.3425513193466
 40
-331.3425513193466
 40
-330.3444233379842
 40
-330.3444233379842
 40
-329.3462953566217
 40
-329.3462953566217
 40
-328.3481673752591
 40
-328.3481673752591
 40
-327.3500393938966
 40
-327.3500393938966
 40
-326.3519114125341
 40
-326.3519114125341
 40
-325.3537834311716
 40
-325.3537834311716
 40
-324.3556554498091
 40
-324.3556554498091
 40
-323.3575274684466
 40
-323.3575274684466
 40
-322.359399487084
 40
-322.359399487084
 40
-321.3612715057216
 40
-321.3612715057216
 40
-320.363143524359
 40
-320.363143524359
 40
-319.3650155429965
 40
-319.3650155429965
 40
-318.366887561634
 40
-318.366887561634
 40
-317.3687595802715
 40
-317.3687595802715
 40
-316.370631598909
 40
-316.370631598909
 40
-315.3725036175465
 40
-315.3725036175465
 40
-314.374375636184
 40
-314.374375636184
 40
-313.3762476548214
 40
-313.3762476548214
 40
-312.378119673459
 40
-312.378119673459
 40
-311.3799916920964
 40
-311.3799916920964
 40
-310.3818637107339
 40
-310.3818637107339
 40
-309.3837357293714
 40
-309.3837357293714
 40
-308.3856077480089
 40
-308.3856077480089
 40
-307.3874797666464
 40
-307.3874797666464
 40
-306.3893517852839
 40
-306.3893517852839
 40
-305.3912238039213
 40
-305.3912238039213
 40
-304.3930958225588
 40
-304.3930958225588
 40
-303.3949678411963
 40
-303.3949678411963
 40
-302.3968398598338
 40
-302.3968398598338
 40
-301.3987118784713
 40
-301.3987118784713
 40
-300.4005838971088
 40
-300.4005838971088
 40
-299.4024559157463
 40
-299.4024559157463
 40
-298.4043279343838
 40
-298.4043279343838
 40
-297.4061999530213
 40
-297.4061999530213
 40
-296.4080719716587
 40
-296.4080719716587
 40
-295.4099439902963
 40
-295.4099439902963
 40
-294.4118160089337
 40
-294.4118160089337
 40
-293.4136880275712
 40
-293.4136880275712
 40
-292.4155600462087
 40
-292.4155600462087
 40
-291.4174320648462
 40
-291.4174320648462
 40
-290.4193040834837
 40
-290.4193040834837
 40
-289.4211761021212
 40
-289.4211761021212
 40
-288.4230481207586
 40
-288.4230481207586
 40
-287.4249201393961
 40
-287.4249201393961
 40
-286.4267921580337
 40
-286.4267921580337
 40
-285.4286641766711
 40
-285.4286641766711
 40
-284.4305361953086
 40
-284.4305361953086
 40
-283.432408213946
 40
-283.432408213946
 40
-282.4342802325834
 40
-282.4342802325834
 40
-281.436152251221
 40
-281.436152251221
 40
-280.4380242698584
 40
-280.4380242698584
 40
-279.4398962884959
 40
-279.4398962884959
 40
-278.4417683071334
 40
-278.4417683071334
 40
-277.4436403257709
 40
-277.4436403257709
 40
-276.4455123444084
 40
-276.4455123444084
 40
-275.4473843630459
 40
-275.4473843630459
 40
-274.4492563816834
 40
-274.4492563816834
 40
-273.4511284003208
 40
-273.4511284003208
 40
-272.4530004189584
 40
-272.4530004189584
 40
-271.4548724375958
 40
-271.4548724375958
 40
-270.4567444562333
 40
-270.4567444562333
 40
-269.4586164748708
 40
-269.4586164748708
 40
-268.4604884935083
 40
-268.4604884935083
 40
-267.4623605121458
 40
-267.4623605121458
 40
-266.4642325307833
 40
-266.4642325307833
 40
-265.4661045494207
 40
-265.4661045494207
 40
-264.4679765680582
 40
-264.4679765680582
 40
-263.4698485866958
 40
-263.4698485866958
 40
-262.4717206053332
 40
-262.4717206053332
 40
-261.4735926239707
 40
-261.4735926239707
 40
-260.4754646426082
 40
-260.4754646426082
 40
-259.4773366612457
 40
-259.4773366612457
 40
-258.4792086798832
 40
-258.4792086798832
 40
-257.4810806985207
 40
-257.4810806985207
 40
-256.4829527171581
 40
-256.4829527171581
 40
-255.4848247357956
 40
-255.4848247357956
 40
-254.4866967544331
 40
-254.4866967544331
 40
-253.4885687730706
 40
-253.4885687730706
 40
-252.4904407917081
 40
-252.4904407917081
 40
-251.4923128103456
 40
-251.4923128103456
 40
-250.4941848289831
 40
-250.4941848289831
 40
-249.4960568476206
 40
-249.4960568476206
 40
-248.4979288662581
 40
-248.4979288662581
 40
-247.4998008848955
 40
-247.4998008848955
 40
-246.501672903533
 40
-246.501672903533
 40
-245.5035449221705
 40
-245.5035449221705
 40
-244.505416940808
 40
-244.505416940808
 40
-243.5072889594455
 40
-243.5072889594455
 40
-242.509160978083
 40
-242.509160978083
 40
-241.5110329967205
 40
-241.5110329967205
 40
-240.512905015358
 40
-240.512905015358
 40
-239.5147770339954
 40
-239.5147770339954
 40
-238.5166490526329
 40
-238.5166490526329
 40
-237.5185210712704
 40
-237.5185210712704
 40
-236.5203930899079
 40
-236.5203930899079
 40
-235.5222651085454
 40
-235.5222651085454
 40
-234.5241371271829
 40
-234.5241371271829
 40
-233.5260091458204
 40
-233.5260091458204
 40
-232.5278811644579
 40
-232.5278811644579
 40
-231.5297531830954
 40
-231.5297531830954
 40
-230.5316252017329
 40
-230.5316252017329
 40
-229.5334972203703
 40
-229.5334972203703
 40
-228.5353692390078
 40
-228.5353692390078
 40
-227.5372412576453
 40
-227.5372412576453
 40
-226.5391132762828
 40
-226.5391132762828
 40
-225.5409852949203
 40
-225.5409852949203
 40
-224.5428573135578
 40
-224.5428573135578
 40
-223.5447293321953
 40
-223.5447293321953
 40
-222.5466013508328
 40
-222.5466013508328
 40
-221.5484733694702
 40
-221.5484733694702
 40
-220.5503453881077
 40
-220.5503453881077
 40
-219.5522174067452
 40
-219.5522174067452
 40
-218.5540894253827
 40
-218.5540894253827
 40
-217.5559614440202
 40
-217.5559614440202
 40
-216.5578334626577
 40
-216.5578334626577
 40
-215.5597054812952
 40
-215.5597054812952
 40
-214.5615774999327
 40
-214.5615774999327
 40
-213.5634495185701
 40
-213.5634495185701
 40
-212.5653215372076
 40
-212.5653215372076
 40
-211.5671935558451
 40
-211.5671935558451
 40
-210.5690655744826
 40
-210.5690655744826
 40
-209.5709375931201
 40
-209.5709375931201
 40
-208.5728096117576
 40
-208.5728096117576
 40
-207.5746816303951
 40
-207.5746816303951
 40
-206.5765536490325
 40
-206.5765536490325
 40
-205.57842566767
 40
-205.57842566767
 40
-204.5802976863075
 40
-204.5802976863075
 40
-203.582169704945
 40
-203.582169704945
 40
-202.5840417235825
 40
-202.5840417235825
 40
-201.58591374222
 40
-201.58591374222
 40
-200.5877857608575
 40
-200.5877857608575
 40
-199.589657779495
 40
-199.589657779495
 40
-198.5915297981325
 40
-198.5915297981325
 40
-197.59340181677
 40
-197.59340181677
 40
-196.5952738354074
 40
-196.5952738354074
 40
-195.5971458540449
 40
-195.5971458540449
 40
-194.5990178726824
 40
-194.5990178726824
 40
-193.6008898913199
 40
-193.6008898913199
 40
-192.6027619099574
 40
-192.6027619099574
 40
-191.6046339285949
 40
-191.6046339285949
 40
-190.6065059472324
 40
-190.6065059472324
 40
-189.6083779658699
 40
-189.6083779658699
 40
-188.6102499845073
 40
-188.6102499845073
 40
-187.6121220031448
 40
-187.6121220031448
 40
-186.6139940217823
 40
-186.6139940217823
 40
-185.6158660404198
 40
-185.6158660404198
 40
-184.6177380590573
 40
-184.6177380590573
 40
-183.6196100776948
 40
-183.6196100776948
 40
-182.6214820963323
 40
-182.6214820963323
 40
-181.6233541149698
 40
-181.6233541149698
 40
-180.6252261336072
 40
-180.6252261336072
 40
-179.6270981522447
 40
-179.6270981522447
 40
-178.6289701708822
 40
-178.6289701708822
 40
-177.6308421895197
 40
-177.6308421895197
 40
-176.6327142081572
 40
-176.6327142081572
 40
-175.6345862267947
 40
-175.6345862267947
 40
-174.6364582454322
 40
-174.6364582454322
 40
-173.6383302640697
 40
-173.6383302640697
 40
-172.6402022827072
 40
-172.6402022827072
 40
-171.6420743013446
 40
-171.6420743013446
 40
-170.6439463199821
 40
-170.6439463199821
 40
-169.6458183386196
 40
-169.6458183386196
 40
-168.6476903572571
 40
-168.6476903572571
 40
-167.6495623758946
 40
-167.6495623758946
 40
-166.6514343945321
 40
-166.6514343945321
 40
-165.6533064131696
 40
-165.6533064131696
 40
-164.6551784318071
 40
-164.6551784318071
 40
-163.6570504504445
 40
-163.6570504504445
 40
-162.658922469082
 40
-162.658922469082
 40
-161.6607944877195
 40
-161.6607944877195
 40
-160.662666506357
 40
-160.662666506357
 40
-159.6645385249945
 40
-159.6645385249945
 40
-158.666410543632
 40
-158.666410543632
 40
-157.6682825622695
 40
-157.6682825622695
 40
-156.670154580907
 40
-156.670154580907
 40
-155.6720265995444
 40
-155.6720265995444
 40
-154.6738986181819
 40
-154.6738986181819
 40
-153.6757706368194
 40
-153.6757706368194
 40
-152.6776426554569
 40
-152.6776426554569
 40
-151.6795146740944
 40
-151.6795146740944
 40
-150.6813866927319
 40
-150.6813866927319
 40
-149.6832587113694
 40
-149.6832587113694
 40
-148.6851307300069
 40
-148.6851307300069
 40
-147.6870027486443
 40
-147.6870027486443
 40
-146.6888747672818
 40
-146.6888747672818
 40
-145.6907467859193
 40
-145.6907467859193
 40
-144.6926188045568
 40
-144.6926188045568
 40
-143.6944908231943
 40
-143.6944908231943
 40
-142.6963628418318
 40
-142.6963628418318
 40
-141.6982348604693
 40
-141.6982348604693
 40
-140.7001068791068
 40
-140.7001068791068
 40
-139.7019788977443
 40
-139.7019788977443
 40
-138.7038509163818
 40
-138.7038509163818
 40
-137.7057229350192
 40
-137.7057229350192
 40
-136.7075949536567
 40
-136.7075949536567
 40
-135.7094669722942
 40
-135.7094669722942
 40
-134.7113389909317
 40
-134.7113389909317
 40
-133.7132110095692
 40
-133.7132110095692
 40
-132.7150830282067
 40
-132.7150830282067
 40
-131.7169550468442
 40
-131.7169550468442
 40
-130.7188270654816
 40
-130.7188270654816
 40
-129.7206990841191
 40
-129.7206990841191
 40
-128.7225711027566
 40
-128.7225711027566
 40
-127.7244431213941
 40
-127.7244431213941
 40
-126.7263151400316
 40
-126.7263151400316
 40
-125.7281871586691
 40
-125.7281871586691
 40
-124.7300591773066
 40
-124.7300591773066
 40
-123.7319311959441
 40
-123.7319311959441
 40
-122.7338032145816
 40
-122.7338032145816
 40
-121.735675233219
 40
-121.735675233219
 40
-120.7375472518565
 40
-120.7375472518565
 40
-119.739419270494
 40
-119.739419270494
 40
-118.7412912891315
 40
-118.7412912891315
 40
-117.743163307769
 40
-117.743163307769
 40
-116.7450353264065
 40
-116.7450353264065
 40
-115.746907345044
 40
-115.746907345044
 40
-114.7487793636815
 40
-114.7487793636815
 40
-113.7506513823189
 40
-113.7506513823189
 40
-112.7525234009564
 40
-112.7525234009564
 40
-111.7543954195939
 40
-111.7543954195939
 40
-110.7562674382314
 40
-110.7562674382314
 40
-109.7581394568689
 40
-109.7581394568689
 40
-108.7600114755064
 40
-108.7600114755064
 40
-107.7618834941439
 40
-107.7618834941439
 40
-106.7637555127814
 40
-106.7637555127814
 40
-105.7656275314188
 40
-105.7656275314188
 40
-104.7674995500563
 40
-104.7674995500563
 40
-103.7693715686938
 40
-103.7693715686938
 40
-102.7712435873313
 40
-102.7712435873313
 40
-101.7731156059688
 40
-101.7731156059688
 40
-100.7749876246063
 40
-100.7749876246063
 40
-99.77685964324377
 40
-99.77685964324377
 40
-98.77873166188127
 40
-98.77873166188127
 40
-97.78060368051875
 40
-97.78060368051875
 40
-96.78247569915624
 40
-96.78247569915624
 40
-95.78434771779372
 40
-95.78434771779372
 40
-94.7862197364312
 40
-94.7862197364312
 40
-93.7880917550687
 40
-93.7880917550687
 40
-92.78996377370619
 40
-92.78996377370619
 40
-91.79183579234368
 40
-91.79183579234368
 40
-90.79370781098116
 40
-90.79370781098116
 40
-89.79557982961866
 40
-89.79557982961866
 40
-88.79745184825615
 40
-88.79745184825615
 40
-87.79932386689363
 40
-87.79932386689363
 40
-86.80119588553111
 40
-86.80119588553111
 40
-85.8030679041686
 40
-85.8030679041686
 40
-84.8049399228061
 40
-84.8049399228061
 40
-83.80681194144358
 40
-83.80681194144358
 40
-82.80868396008107
 40
-82.80868396008107
 40
-81.81055597871855
 40
-81.81055597871855
 40
-80.81242799735604
 40
-80.81242799735604
 40
-79.81430001599354
 40
-79.81430001599354
 40
-78.81617203463102
 40
-78.81617203463102
 40
-77.81804405326851
 40
-77.81804405326851
 40
-76.819916071906
 40
-76.819916071906
 40
-75.82178809054348
 40
-75.82178809054348
 40
-74.82366010918098
 40
-74.82366010918098
 40
-73.82553212781846
 40
-73.82553212781846
 40
-72.82740414645595
 40
-72.82740414645595
 40
-71.82927616509343
 40
-71.82927616509343
 40
-70.83114818373093
 40
-70.83114818373093
 40
-69.83302020236842
 40
-69.83302020236842
 40
-68.8348922210059
 40
-68.8348922210059
 40
-67.83676423964339
 40
-67.83676423964339
 40
-66.83863625828087
 40
-66.83863625828087
 40
-65.84050827691837
 40
-65.84050827691837
 40
-64.84238029555586
 40
-64.84238029555586
 40
-63.84425231419334
 40
-63.84425231419334
 40
-62.84612433283083
 40
-62.84612433283083
 40
-61.84799635146832
 40
-61.84799635146832
 40
-60.8498683701058
 40
-60.8498683701058
 40
-59.85174038874329
 40
-59.85174038874329
 40
-58.85361240738078
 40
-58.85361240738078
 40
-57.85548442601827
 40
-57.85548442601827
 40
-56.85735644465576
 40
-56.85735644465576
 40
-55.85922846329324
 40
-55.85922846329324
 40
-54.86110048193073
 40
-54.86110048193073
 40
-53.86297250056822
 40
-53.86297250056822
 40
-52.86484451920571
 40
-52.86484451920571
 40
-51.8667165378432
 40
-51.8667165378432
 40
-50.86858855648068
 40
-50.86858855648068
 40
-49.87046057511817
 40
-49.87046057511817
 40
-48.87233259375566
 40
-48.87233259375566
 40
-47.87420461239315
 40
-47.87420461239315
 40
-46.87607663103064
 40
-46.87607663103064
 40
-45.87794864966813
 40
-45.87794864966813
 40
-44.87982066830561
 40
-44.87982066830561
 40
-43.8816926869431
 40
-43.8816926869431
 40
-42.88356470558059
 40
-42.88356470558059
 40
-41.88543672421807
 40
-41.88543672421807
 40
-40.88730874285557
 40
-40.88730874285557
 40
-39.88918076149305
 40
-39.88918076149305
 40
-38.89105278013054
 40
-38.89105278013054
 40
-37.89292479876803
 40
-37.89292479876803
 40
-36.89479681740551
 40
-36.89479681740551
 40
-35.89666883604301
 40
-35.89666883604301
 40
-34.89854085468049
 40
-34.89854085468049
 40
-33.90041287331798
 40
-33.90041287331798
 40
-32.90228489195547
 40
-32.90228489195547
 40
-31.90415691059296
 40
-31.90415691059296
 40
-30.90602892923044
 40
-30.90602892923044
 40
-29.90790094786793
 40
-29.90790094786793
 40
-28.90977296650542
 40
-28.90977296650542
 40
-27.91164498514291
 40
-27.91164498514291
 40
-26.9135170037804
 40
-26.9135170037804
 40
-25.91538902241788
 40
-25.91538902241788
 40
-24.91726104105537
 40
-24.91726104105537
 40
-23.91913305969286
 40
-23.91913305969286
 40
-22.92100507833035
 40
-22.92100507833035
 40
-21.92287709696783
 40
-21.92287709696783
 40
-20.92474911560532
 40
-20.92474911560532
 40
-19.92662113424281
 40
-19.92662113424281
 40
-18.9284931528803
 40
-18.9284931528803
 40
-17.93036517151779
 40
-17.93036517151779
 40
-16.93223719015528
 40
-16.93223719015528
 40
-15.93410920879276
 40
-15.93410920879276
 40
-14.93598122743025
 40
-14.93598122743025
 40
-13.93785324606774
 40
-13.93785324606774
 40
-12.93972526470523
 40
-12.93972526470523
 40
-11.94159728334272
 40
-11.94159728334272
 40
-10.9434693019802
 40
-10.9434693019802
 40
-9.945341320617691
 40
-9.945341320617691
 40
-8.94721333925518
 40
-8.94721333925518
 40
-7.949085357892668
 40
-7.949085357892668
 40
-6.950957376530155
 40
-6.950957376530155
 40
-5.952829395167644
 40
-5.952829395167644
 40
-4.954701413805132
 40
-4.954701413805132
 40
-3.95657343244262
 40
-3.95657343244262
 40
-2.958445451080107
 40
-2.958445451080107
 40
-1.960317469717595
 40
-1.960317469717595
 40
0.0
 40
0.0
 40
1.0
 40
1.0
 40
1.0
 10
-5.076095552464665
 20
-75.88464541915101
 30
0.0
 10
-1.056095660945118
 20
-76.13014407637758
 30
0.0
 10
2.963904230574428
 20
-76.37564273360414
 30
0.0
 10
6.984904228428661
 20
-76.13114352706117
 30
0.0
 10
11.00590422628289
 20
-75.8866443205182
 30
0.0
 10
13.04490426061517
 20
-75.79664416793031
 30
0.0
 10
15.08390429494744
 20
-75.70664401534242
 30
0.0
 10
17.13490441320306
 20
-75.58964343550844
 30
0.0
 10
19.18590453145868
 20
-75.47264285567445
 30
0.0
 10
21.24390461919671
 20
-75.3241443205182
 30
0.0
 10
23.30190470693475
 20
-75.17564578536195
 30
0.0
 10
25.36290457723504
 20
-74.99264331343812
 30
0.0
 10
27.42390444753534
 20
-74.8096408415143
 30
0.0
 10
29.47990420339471
 20
-74.58914371016664
 30
0.0
 10
31.53590395925409
 20
-74.36864657881898
 30
0.0
 10
33.58590414998895
 20
-74.10764499190492
 30
0.0
 10
35.63590434072381
 20
-73.84664340499086
 30
0.0
 10
37.67290404317743
 20
-73.53914447310609
 30
0.0
 10
39.70990374563104
 20
-73.23164554122133
 30
0.0
 10
41.72990420339471
 20
-72.8761462736432
 30
0.0
 10
43.74990466115838
 20
-72.52064700606508
 30
0.0
 10
45.74790385244256
 20
-72.11414523604554
 30
0.0
 10
47.74590304372674
 20
-71.70764346602601
 30
0.0
 10
49.71890452382928
 20
-71.24514194014711
 30
0.0
 10
51.69190600393182
 20
-70.7826404142682
 30
0.0
 10
53.6319046306408
 20
-70.26314349654359
 30
0.0
 10
55.57190325734979
 20
-69.74364657881898
 30
0.0
 10
57.47490313527948
 20
-69.15964694502992
 30
0.0
 10
59.37790301320916
 20
-68.57564731124086
 30
0.0
 10
61.24290278432733
 20
-67.92814441207094
 30
0.0
 10
63.10790255544549
 20
-67.28064151290101
 30
0.0
 10
64.92490389821893
 20
-66.56264300826234
 30
0.0
 10
66.74190524099237
 20
-65.84464450362367
 30
0.0
 10
67.02490427968866
 20
-65.70814319136781
 30
0.0
 10
67.30790331838494
 20
-65.57164187911195
 30
0.0
 10
67.57690432546502
 20
-65.40364261153383
 30
0.0
 10
67.8459053325451
 20
-65.2356433439557
 30
0.0
 10
68.09390643117791
 20
-65.0376452970807
 30
0.0
 10
68.34190752981073
 20
-64.8396472502057
 30
0.0
 10
68.56290438650018
 20
-64.61514468672914
 30
0.0
 10
68.78390124318963
 20
-64.39064212325258
 30
0.0
 10
68.97490313527948
 20
-64.14414401534242
 30
0.0
 10
69.16590502736932
 20
-63.89764590743226
 30
0.0
 10
69.3209038066662
 20
-63.6366443205182
 30
0.0
 10
69.47590258596307
 20
-63.37564273360414
 30
0.0
 10
69.59190371511346
 20
-63.10314364913148
 30
0.0
 10
69.70790484426385
 20
-62.83064456465883
 30
0.0
 10
69.78790286062127
 20
-62.55214496138734
 30
0.0
 10
69.8679008769787
 20
-62.27364535811586
 30
0.0
 10
69.91090395925409
 20
-61.99064441207094
 30
0.0
 10
69.95390704152948
 20
-61.70764346602601
 30
0.0
 10
69.9609070110119
 20
-61.41614337447328
 30
0.0
 10
69.96790698049432
 20
-61.12464328292054
 30
0.0
 10
69.93590548513299
 20
-60.83014483931703
 30
0.0
 10
69.90390398977166
 20
-60.53564639571351
 30
0.0
 10
69.8299026775158
 20
-60.24514575484437
 30
0.0
 10
69.75590136525994
 20
-59.95464511397523
 30
0.0
 10
69.64490130422479
 20
-59.6736430692975
 30
0.0
 10
69.53390124318963
 20
-59.39264102461976
 30
0.0
 10
69.38790133474237
 20
-59.12714190962953
 30
0.0
 10
69.2419014262951
 20
-58.86164279463929
 30
0.0
 10
68.85890200612909
 20
-58.39514346602601
 30
0.0
 10
68.47590258596307
 20
-57.92864413741273
 30
0.0
 10
66.52990344045526
 20
-56.05614467147035
 30
0.0
 10
64.58390429494744
 20
-54.18364520552797
 30
0.0
 10
65.52890398977166
 20
-53.4126452970807
 30
0.0
 10
66.47390368459588
 20
-52.64164538863344
 30
0.0
 10
67.72890475271112
 20
-53.84814448836488
 30
0.0
 10
68.98390582082635
 20
-55.05464358809633
 30
0.0
 10
69.44390490529901
 20
-54.57614322188539
 30
0.0
 10
69.90390398977166
 20
-54.09764285567445
 30
0.0
 10
70.00990298269159
 20
-51.75964351180238
 30
0.0
 10
70.11590197561151
 20
-49.42164416793031
 30
0.0
 10
66.63190272329217
 20
-46.07264323714418
 30
0.0
 10
63.14790347097284
 20
-42.72364230635804
 30
0.0
 10
60.45590403554803
 20
-42.72364230635804
 30
0.0
 10
57.76390460012323
 20
-42.72364230635804
 30
0.0
 10
57.3779049205578
 20
-43.12614245894594
 30
0.0
 10
56.99190524099237
 20
-43.52864261153383
 30
0.0
 10
58.24790385244256
 20
-44.7351436186139
 30
0.0
 10
59.50390246389276
 20
-45.94164462569398
 30
0.0
 10
58.55890276906854
 20
-46.71464343550844
 30
0.0
 10
57.61390307424432
 20
-47.48764224532289
 30
0.0
 10
55.65790369985467
 20
-45.60614200118226
 30
0.0
 10
53.70190432546502
 20
-43.72464175704164
 30
0.0
 10
53.06790354726678
 20
-43.16214175704164
 30
0.0
 10
52.43390276906854
 20
-42.59964175704164
 30
0.0
 10
51.74390414235955
 20
-42.07764239791078
 30
0.0
 10
51.05390551565057
 20
-41.55564303877992
 30
0.0
 10
50.31390574453241
 20
-41.08114429000062
 30
0.0
 10
49.57390597341424
 20
-40.60664554122133
 30
0.0
 10
48.79090502736932
 20
-40.18614383223695
 30
0.0
 10
48.0079040813244
 20
-39.76564212325258
 30
0.0
 10
47.18890383718377
 20
-39.40214343550844
 30
0.0
 10
46.36990359304315
 20
-39.03864474776429
 30
0.0
 10
45.52290347097284
 20
-38.73664470198793
 30
0.0
 10
44.67590334890252
 20
-38.43464465621156
 30
0.0
 10
43.80990412710076
 20
-38.19614406111879
 30
0.0
 10
42.94390490529901
 20
-37.95764346602601
 30
0.0
 10
42.06890490529901
 20
-37.78264422896547
 30
0.0
 10
41.19390490529901
 20
-37.60764499190492
 30
0.0
 10
29.26290467260247
 20
-35.65214343550844
 30
0.0
 10
17.33190443990594
 20
-33.69664187911195
 30
0.0
 10
17.2409043597973
 20
-33.66764255049867
 30
0.0
 10
17.14990427968866
 20
-33.63864322188539
 30
0.0
 10
17.07090428350335
 20
-33.57814403060121
 30
0.0
 10
16.99190428731805
 20
-33.51764483931703
 30
0.0
 10
16.94390442846185
 20
-33.43764491561097
 30
0.0
 10
16.89590456960565
 20
-33.35764499190492
 30
0.0
 10
16.88290455816156
 20
-33.27164454940004
 30
0.0
 10
16.86990454671746
 20
-33.18564410689515
 30
0.0
 10
16.88990452764398
 20
-33.10164447310609
 30
0.0
 10
16.90990450857049
 20
-33.01764483931703
 30
0.0
 10
16.96490433690911
 20
-32.94164462569398
 30
0.0
 10
17.01990416524774
 20
-32.86564441207094
 30
0.0
 10
17.10190442083245
 20
-32.81014438155336
 30
0.0
 10
17.18390467641717
 20
-32.75464435103578
 30
0.0
 10
17.27790453908807
 20
-32.7306441831891
 30
0.0
 10
17.37190440175897
 20
-32.70664401534242
 30
0.0
 10
23.290904073695
 20
-32.07814403060121
 30
0.0
 10
29.20990374563104
 20
-31.44964404586
 30
0.0
 10
30.80990412710076
 20
-31.18214412215394
 30
0.0
 10
32.40990450857049
 20
-30.91464419844789
 30
0.0
 10
36.27990344045526
 20
-30.51814456465883
 30
0.0
 10
40.14990237234002
 20
-30.12164493086976
 30
0.0
 10
45.15290263173944
 20
-29.43064494612855
 30
0.0
 10
50.15590289113885
 20
-28.73964496138734
 30
0.0
 10
54.67290308950311
 20
-28.03714366439027
 30
0.0
 10
59.18990328786737
 20
-27.3346423673932
 30
0.0
 10
63.1999035167492
 20
-26.62964339736146
 30
0.0
 10
67.20990374563104
 20
-25.92464442732972
 30
0.0
 10
70.69290545461541
 20
-25.22964377883119
 30
0.0
 10
74.17590716359979
 20
-24.53464313033265
 30
0.0
 10
77.11390688894159
 20
-23.86164374831361
 30
0.0
 10
80.05190661428338
 20
-23.18864436629457
 30
0.0
 10
81.3089065837658
 20
-22.86564441207094
 30
0.0
 10
82.56590655324823
 20
-22.5426444578473
 30
0.0
 10
82.79741290090448
 20
-22.47707839492006
 30
0.0
 10
83.02891924856073
 20
-22.41151233199281
 30
0.0
 10
83.11491015432244
 20
-22.34307761672181
 30
0.0
 10
83.20090106008416
 20
-22.27464290145082
 30
0.0
 10
83.31040194509393
 20
-22.18364329817933
 30
0.0
 10
83.4199028301037
 20
-22.09264369490785
 30
0.0
 10
83.4814033794201
 20
-22.02770801070375
 30
0.0
 10
83.54290392873651
 20
-21.96277232649965
 30
0.0
 10
83.54290392873651
 20
-18.03020759108705
 30
0.0
 10
83.54290392873651
 20
-14.09764285567445
 30
0.0
 10
83.81540301320916
 20
-14.09764285567445
 30
0.0
 10
84.08790209768182
 20
-14.09764285567445
 30
0.0
 10
84.08790209768182
 20
-14.07814307692689
 30
0.0
 10
84.08790209768182
 20
-14.05864329817933
 30
0.0
 10
85.30790331838494
 20
-14.05864329817933
 30
0.0
 10
86.52790453908807
 20
-14.05864329817933
 30
0.0
 10
86.52790453908807
 20
-13.63414378646058
 30
0.0
 10
86.52790453908807
 20
-13.20964427474183
 30
0.0
 10
86.52940371511346
 20
-13.19014354231996
 30
0.0
 10
86.53090289113885
 20
-13.17064280989808
 30
0.0
 10
86.53640368459588
 20
-13.15164275649232
 30
0.0
 10
86.54190447805291
 20
-13.13264270308656
 30
0.0
 10
86.55090334890252
 20
-13.11464305403871
 30
0.0
 10
86.55990221975213
 20
-13.09664340499086
 30
0.0
 10
86.57240298269159
 20
-13.0796432066266
 30
0.0
 10
86.58490374563104
 20
-13.06264300826234
 30
0.0
 10
86.60040286062127
 20
-13.0481433439557
 30
0.0
 10
86.61590197561151
 20
-13.03364367964906
 30
0.0
 10
86.63390353200799
 20
-13.02064319136781
 30
0.0
 10
86.65190508840448
 20
-13.00764270308656
 30
0.0
 10
86.67190554616815
 20
-12.99764342787904
 30
0.0
 10
86.69190600393182
 20
-12.98764415267152
 30
0.0
 10
86.71340563772088
 20
-12.97964377883119
 30
0.0
 10
86.73490527150994
 20
-12.97164340499086
 30
0.0
 10
86.7579040813244
 20
-12.96714396956605
 30
0.0
 10
86.78090289113885
 20
-12.96264453414125
 30
0.0
 10
86.80440524099237
 20
-12.96114440444154
 30
0.0
 10
86.82790759084588
 20
-12.95964427474183
 30
0.0
 10
87.42990496633416
 20
-12.95964427474183
 30
0.0
 10
88.03190234182244
 20
-12.95964427474183
 30
0.0
 10
88.05540469167596
 20
-12.96114440444154
 30
0.0
 10
88.07890704152948
 20
-12.96264453414125
 30
0.0
 10
88.10190585134393
 20
-12.96714396956605
 30
0.0
 10
88.12490466115838
 20
-12.97164340499086
 30
0.0
 10
88.14640429494744
 20
-12.97964377883119
 30
0.0
 10
88.16790392873651
 20
-12.98764415267152
 30
0.0
 10
88.18840411184198
 20
-12.99764342787904
 30
0.0
 10
88.20890429494744
 20
-13.00764270308656
 30
0.0
 10
88.22640612600213
 20
-13.02064319136781
 30
0.0
 10
88.24390795705682
 20
-13.03364367964906
 30
0.0
 10
88.25940707204705
 20
-13.0481433439557
 30
0.0
 10
88.27490618703729
 20
-13.06264300826234
 30
0.0
 10
88.28740694997674
 20
-13.0796432066266
 30
0.0
 10
88.2999077129162
 20
-13.09664340499086
 30
0.0
 10
88.3089065837658
 20
-13.11464305403871
 30
0.0
 10
88.31790545461541
 20
-13.13264270308656
 30
0.0
 10
88.32340624807244
 20
-13.15164275649232
 30
0.0
 10
88.32890704152948
 20
-13.17064280989808
 30
0.0
 10
88.33090594289666
 20
-13.19014354231996
 30
0.0
 10
88.33290484426385
 20
-13.20964427474183
 30
0.0
 10
88.33290484426385
 20
-15.96214385512513
 30
0.0
 10
88.33290484426385
 20
-18.71464343550844
 30
0.0
 10
88.33090594289666
 20
-18.73414321425599
 30
0.0
 10
88.32890704152948
 20
-18.75364299300355
 30
0.0
 10
88.32340624807244
 20
-18.77264304640931
 30
0.0
 10
88.31790545461541
 20
-18.79164309981508
 30
0.0
 10
88.3089065837658
 20
-18.81014342787904
 30
0.0
 10
88.2999077129162
 20
-18.82864375594301
 30
0.0
 10
88.28740694997674
 20
-18.84514327529115
 30
0.0
 10
88.27490618703729
 20
-18.86164279463929
 30
0.0
 10
88.25940707204705
 20
-18.87664313796205
 30
0.0
 10
88.24390795705682
 20
-18.8916434812848
 30
0.0
 10
88.22640612600213
 20
-18.90414329054994
 30
0.0
 10
88.20890429494744
 20
-18.91664309981508
 30
0.0
 10
88.18840411184198
 20
-18.92714305403871
 30
0.0
 10
88.16790392873651
 20
-18.93764300826234
 30
0.0
 10
88.14640429494744
 20
-18.94514365676088
 30
0.0
 10
88.12490466115838
 20
-18.95264430525941
 30
0.0
 10
88.10190585134393
 20
-18.95714374068422
 30
0.0
 10
88.07890704152948
 20
-18.96164317610902
 30
0.0
 10
88.05540469167596
 20
-18.96314330580873
 30
0.0
 10
88.03190234182244
 20
-18.96464343550844
 30
0.0
 10
87.42990496633416
 20
-18.96464343550844
 30
0.0
 10
86.82790759084588
 20
-18.96464343550844
 30
0.0
 10
86.80440524099237
 20
-18.96314330580873
 30
0.0
 10
86.78090289113885
 20
-18.96164317610902
 30
0.0
 10
86.7579040813244
 20
-18.95714374068422
 30
0.0
 10
86.73490527150994
 20
-18.95264430525941
 30
0.0
 10
86.71340563772088
 20
-18.94514365676088
 30
0.0
 10
86.69190600393182
 20
-18.93764300826234
 30
0.0
 10
86.67190554616815
 20
-18.92714305403871
 30
0.0
 10
86.65190508840448
 20
-18.91664309981508
 30
0.0
 10
86.63390353200799
 20
-18.90414329054994
 30
0.0
 10
86.61590197561151
 20
-18.8916434812848
 30
0.0
 10
86.60040286062127
 20
-18.87664313796205
 30
0.0
 10
86.58490374563104
 20
-18.86164279463929
 30
0.0
 10
86.57240298269159
 20
-18.84514327529115
 30
0.0
 10
86.55990221975213
 20
-18.82864375594301
 30
0.0
 10
86.55090334890252
 20
-18.81014342787904
 30
0.0
 10
86.54190447805291
 20
-18.79164309981508
 30
0.0
 10
86.53640368459588
 20
-18.77264304640931
 30
0.0
 10
86.53090289113885
 20
-18.75364299300355
 30
0.0
 10
86.52940371511346
 20
-18.73414321425599
 30
0.0
 10
86.52790453908807
 20
-18.71464343550844
 30
0.0
 10
86.52790453908807
 20
-17.28914351943178
 30
0.0
 10
86.52790453908807
 20
-15.86364360335511
 30
0.0
 10
85.9354057597912
 20
-15.86364360335511
 30
0.0
 10
85.34290698049432
 20
-15.86364360335511
 30
0.0
 10
85.34290698049432
 20
-18.60598273757142
 30
0.0
 10
85.34290698049432
 20
-21.34832187178773
 30
0.0
 10
85.3819046306408
 20
-21.37348266127748
 30
0.0
 10
85.42090228078729
 20
-21.39864345076722
 30
0.0
 10
85.48040392873651
 20
-21.42714400771303
 30
0.0
 10
85.53990557668573
 20
-21.45564456465883
 30
0.0
 10
85.5969047832287
 20
-21.47364421370668
 30
0.0
 10
85.65390398977166
 20
-21.49164386275453
 30
0.0
 10
85.70690539358026
 20
-21.50114341262025
 30
0.0
 10
85.75990679738885
 20
-21.51064296248597
 30
0.0
 10
85.81848528859979
 20
-21.51106734755678
 30
0.0
 10
85.87706377981073
 20
-21.51149173262758
 30
0.0
 10
88.23048403737909
 20
-20.6420678663556
 30
0.0
 10
90.58390429494744
 20
-19.77264400008363
 30
0.0
 10
93.2209053325451
 20
-18.72564406874818
 30
0.0
 10
95.85790637014276
 20
-17.67864413741273
 30
0.0
 10
97.23290637014276
 20
-17.09064383986635
 30
0.0
 10
98.60790637014276
 20
-16.50264354231996
 30
0.0
 10
99.87690356252557
 20
-15.92214389327211
 30
0.0
 10
101.1459007549084
 20
-15.34164424422426
 30
0.0
 10
102.3039017009533
 20
-14.76964374068422
 30
0.0
 10
103.4619026469982
 20
-14.19764323714418
 30
0.0
 10
104.508903532008
 20
-13.63414378646058
 30
0.0
 10
105.5559044170178
 20
-13.07064433577699
 30
0.0
 10
106.4869041728771
 20
-12.5116443205182
 30
0.0
 10
107.4179039287365
 20
-11.95264430525941
 30
0.0
 10
108.2359047221935
 20
-11.40014358046693
 30
0.0
 10
109.0539055156506
 20
-10.84764285567445
 30
0.0
 10
109.7609062480724
 20
-10.29714341643495
 30
0.0
 10
110.4679069804943
 20
-9.746643977195447
 30
0.0
 10
111.068904905299
 20
-9.19464393141908
 30
0.0
 10
111.6699028301037
 20
-8.642643885642713
 30
0.0
 10
112.1709022807873
 20
-8.088143782645886
 30
0.0
 10
112.6719017314709
 20
-7.53364367964906
 30
0.0
 10
113.076904325465
 20
-6.972143607169812
 30
0.0
 10
113.4819069194592
 20
-6.410643534690564
 30
0.0
 10
113.802906064967
 20
-5.841643767387097
 30
0.0
 10
114.1239052104748
 20
-5.272644000083631
 30
0.0
 10
114.3659057903088
 20
-4.687143759757703
 30
0.0
 10
114.6079063701428
 20
-4.101643519431775
 30
0.0
 10
114.7819061565197
 20
-3.500643687278455
 30
0.0
 10
114.9559059428967
 20
-2.899643855125134
 30
0.0
 10
115.0719032573498
 20
-2.27514381888551
 30
0.0
 10
115.1879005718029
 20
-1.650643782645886
 30
0.0
 10
115.2549019145764
 20
-0.9996437597577028
 30
0.0
 10
115.3219032573498
 20
-0.3486437368695192
 30
0.0
 10
115.3509025859631
 20
0.3343563508685179
 30
0.0
 10
115.3799019145764
 20
1.017356438606555
 30
0.0
 10
115.3609047221935
 20
2.268856449096972
 30
0.0
 10
115.3419075298107
 20
3.52035645958739
 30
0.0
 10
115.2439041423596
 20
4.860856397121722
 30
0.0
 10
115.1459007549084
 20
6.201356334656055
 30
0.0
 10
114.9679031657971
 20
7.608356339901263
 30
0.0
 10
114.7899055766857
 20
9.015356345146472
 30
0.0
 10
114.5369034099377
 20
10.46385638233977
 30
0.0
 10
114.2839012431896
 20
11.91235641953307
 30
0.0
 10
113.9549026775158
 20
13.38235620972472
 30
0.0
 10
113.625904111842
 20
14.85235599991637
 30
0.0
 10
113.2269058513439
 20
16.31935600754576
 30
0.0
 10
112.8279075908459
 20
17.78635601517516
 30
0.0
 10
112.3609047221935
 20
19.22885612961608
 30
0.0
 10
111.8939018535412
 20
20.67135624405699
 30
0.0
 10
111.3639030742443
 20
22.06835655686217
 30
0.0
 10
110.8339042949474
 20
23.46535686966735
 30
0.0
 10
110.2459030437267
 20
24.79185680863219
 30
0.0
 10
109.657901792506
 20
26.11835674759703
 30
0.0
 10
109.0149040508068
 20
27.35685638901549
 30
0.0
 10
108.3719063091076
 20
28.59535603043395
 30
0.0
 10
107.6799049663342
 20
29.72485641953307
 30
0.0
 10
106.9879036235607
 20
30.85435680863219
 30
0.0
 10
106.6249046611584
 20
31.37185673233824
 30
0.0
 10
106.261905698756
 20
31.8893566560443
 30
0.0
 10
105.8899040508068
 20
32.37335686203795
 30
0.0
 10
105.5179024028576
 20
32.8573570680316
 30
0.0
 10
105.1359024333752
 20
33.30585674759703
 30
0.0
 10
104.7539024638928
 20
33.75435642716246
 30
0.0
 10
104.3639030742443
 20
34.16385654923278
 30
0.0
 10
103.9739036845959
 20
34.57335667130309
 30
0.0
 10
103.5749054240978
 20
34.94285683152037
 30
0.0
 10
103.1759071635998
 20
35.31235699173766
 30
0.0
 10
102.7719040202892
 20
35.6413565110858
 30
0.0
 10
102.3679008769787
 20
35.97035603043395
 30
0.0
 10
101.956901578883
 20
36.25585655686217
 30
0.0
 10
101.5459022807873
 20
36.54135708329039
 30
0.0
 10
101.1299019145764
 20
36.78385643479186
 30
0.0
 10
100.7139015483654
 20
37.02635578629332
 30
0.0
 10
100.2919044780529
 20
37.22235588547545
 30
0.0
 10
99.86990740774041
 20
37.41835598465758
 30
0.0
 10
99.4449043559826
 20
37.56785587784606
 30
0.0
 10
99.01990130422479
 20
37.71735577103453
 30
0.0
 10
97.22290423391229
 20
38.18385700699645
 30
0.0
 10
95.42590716359979
 20
38.65035824295836
 30
0.0
 10
94.02190402028924
 20
38.96985821244078
 30
0.0
 10
92.6179008769787
 20
39.28935818192321
 30
0.0
 10
90.4929008769787
 20
39.68785671707946
 30
0.0
 10
88.3679008769787
 20
40.08635525223571
 30
0.0
 10
87.34459307668573
 20
40.20913509842711
 30
0.0
 10
86.32128527639276
 20
40.33191494461852
 30
0.0
 10
86.27109530446893
 20
40.32013515946227
 30
0.0
 10
86.2209053325451
 20
40.30835537430602
 30
0.0
 10
86.1684036540783
 20
40.28785519120055
 30
0.0
 10
86.11590197561151
 20
40.26735500809508
 30
0.0
 10
86.06140139577752
 20
40.23935513016539
 30
0.0
 10
86.00690081594354
 20
40.21135525223571
 30
0.0
 10
85.95040133474237
 20
40.17435650345641
 30
0.0
 10
85.8939018535412
 20
40.13735775467711
 30
0.0
 10
85.83690264699823
 20
40.08985714432555
 30
0.0
 10
85.77990344045526
 20
40.04235653397399
 30
0.0
 10
85.7219047832287
 20
39.9828567933734
 30
0.0
 10
85.66390612600213
 20
39.92335705277281
 30
0.0
 10
85.60540392873651
 20
39.85085682389098
 30
0.0
 10
85.54690173147088
 20
39.77835659500914
 30
0.0
 10
85.4449043559826
 20
39.64406017777281
 30
0.0
 10
85.34290698049432
 20
39.50976376053649
 30
0.0
 10
85.34290698049432
 20
36.89556030747252
 30
0.0
 10
85.34290698049432
 20
34.28135685440856
 30
0.0
 10
85.96540453908807
 20
34.28135685440856
 30
0.0
 10
86.58790209768182
 20
34.28135685440856
 30
0.0
 10
86.58790209768182
 20
35.47585682389098
 30
0.0
 10
86.58790209768182
 20
36.6703567933734
 30
0.0
 10
86.58990481374627
 20
36.69035629746276
 30
0.0
 10
86.59190752981073
 20
36.71035580155211
 30
0.0
 10
86.59740450857049
 20
36.72935585495787
 30
0.0
 10
86.60290148733026
 20
36.74835590836364
 30
0.0
 10
86.61190417287713
 20
36.7663565110858
 30
0.0
 10
86.62090685842401
 20
36.78435711380797
 30
0.0
 10
86.6329040813244
 20
36.80085663315612
 30
0.0
 10
86.64490130422479
 20
36.81735615250426
 30
0.0
 10
86.66040423391229
 20
36.83235649582701
 30
0.0
 10
86.67590716359979
 20
36.84735683914977
 30
0.0
 10
86.69390490529901
 20
36.8603563737567
 30
0.0
 10
86.71190264699823
 20
36.87335590836364
 30
0.0
 10
86.7319031047619
 20
36.88335613724547
 30
0.0
 10
86.75190356252557
 20
36.89335636612731
 30
0.0
 10
86.77390292165643
 20
36.90085606095153
 30
0.0
 10
86.79590228078729
 20
36.90835575577574
 30
0.0
 10
86.81890490529901
 20
36.91335587021666
 30
0.0
 10
86.84190752981073
 20
36.91835598465758
 30
0.0
 10
86.86540606496698
 20
36.91985611435729
 30
0.0
 10
86.88890460012323
 20
36.92135624405699
 30
0.0
 10
87.49040606496698
 20
36.92135624405699
 30
0.0
 10
88.09190752981073
 20
36.92135624405699
 30
0.0
 10
88.11540606496698
 20
36.91985611435729
 30
0.0
 10
88.13890460012323
 20
36.91835598465758
 30
0.0
 10
88.16190340993768
 20
36.91335587021666
 30
0.0
 10
88.18490221975213
 20
36.90835575577574
 30
0.0
 10
88.20690157888299
 20
36.90085606095153
 30
0.0
 10
88.22890093801385
 20
36.89335636612731
 30
0.0
 10
88.24890139577752
 20
36.88335613724547
 30
0.0
 10
88.2689018535412
 20
36.87335590836364
 30
0.0
 10
88.28690340993768
 20
36.8603563737567
 30
0.0
 10
88.30490496633416
 20
36.84735683914977
 30
0.0
 10
88.3204040813244
 20
36.83235649582701
 30
0.0
 10
88.33590319631463
 20
36.81735615250426
 30
0.0
 10
88.34790423391229
 20
36.80085663315612
 30
0.0
 10
88.35990527150994
 20
36.78435711380797
 30
0.0
 10
88.36890414235955
 20
36.7663565110858
 30
0.0
 10
88.37790301320916
 20
36.74835590836364
 30
0.0
 10
88.3834038066662
 20
36.72935585495787
 30
0.0
 10
88.38890460012323
 20
36.71035580155211
 30
0.0
 10
88.39090350149041
 20
36.69035629746276
 30
0.0
 10
88.3929024028576
 20
36.6703567933734
 30
0.0
 10
88.3929024028576
 20
33.9183569383319
 30
0.0
 10
88.3929024028576
 20
31.16635708329039
 30
0.0
 10
88.39090350149041
 20
31.14685635086852
 30
0.0
 10
88.38890460012323
 20
31.12735561844664
 30
0.0
 10
88.3834038066662
 20
31.10785583969908
 30
0.0
 10
88.37790301320916
 20
31.08835606095153
 30
0.0
 10
88.36890414235955
 20
31.07035641190367
 30
0.0
 10
88.35990527150994
 20
31.05235676285582
 30
0.0
 10
88.34790423391229
 20
31.03585628983336
 30
0.0
 10
88.33590319631463
 20
31.0193558168109
 30
0.0
 10
88.3204040813244
 20
31.00435642716246
 30
0.0
 10
88.30490496633416
 20
30.98935703751403
 30
0.0
 10
88.28690340993768
 20
30.97635654923278
 30
0.0
 10
88.2689018535412
 20
30.96335606095153
 30
0.0
 10
88.24890139577752
 20
30.95335583206969
 30
0.0
 10
88.22890093801385
 20
30.94335560318785
 30
0.0
 10
88.20690157888299
 20
30.93585590836364
 30
0.0
 10
88.18490221975213
 20
30.92835621353942
 30
0.0
 10
88.16190340993768
 20
30.9238558244403
 30
0.0
 10
88.13890460012323
 20
30.91935543534117
 30
0.0
 10
88.11540606496698
 20
30.91785625931578
 30
0.0
 10
88.09190752981073
 20
30.91635708329039
 30
0.0
 10
87.49040606496698
 20
30.91635708329039
 30
0.0
 10
86.88890460012323
 20
30.91635708329039
 30
0.0
 10
86.86540606496698
 20
30.91785625931578
 30
0.0
 10
86.84190752981073
 20
30.91935543534117
 30
0.0
 10
86.81890490529901
 20
30.9238558244403
 30
0.0
 10
86.79590228078729
 20
30.92835621353942
 30
0.0
 10
86.77390292165643
 20
30.93585590836364
 30
0.0
 10
86.75190356252557
 20
30.94335560318785
 30
0.0
 10
86.7319031047619
 20
30.95335583206969
 30
0.0
 10
86.71190264699823
 20
30.96335606095153
 30
0.0
 10
86.69390490529901
 20
30.97635654923278
 30
0.0
 10
86.67590716359979
 20
30.98935703751403
 30
0.0
 10
86.66040423391229
 20
31.00435642716246
 30
0.0
 10
86.64490130422479
 20
31.0193558168109
 30
0.0
 10
86.6329040813244
 20
31.03585628983336
 30
0.0
 10
86.62090685842401
 20
31.05235676285582
 30
0.0
 10
86.61190417287713
 20
31.07035641190367
 30
0.0
 10
86.60290148733026
 20
31.08835606095153
 30
0.0
 10
86.59740450857049
 20
31.10785583969908
 30
0.0
 10
86.59190752981073
 20
31.12735561844664
 30
0.0
 10
86.58990481374627
 20
31.14685635086852
 30
0.0
 10
86.58790209768182
 20
31.16635708329039
 30
0.0
 10
86.58790209768182
 20
31.82135681626158
 30
0.0
 10
86.58790209768182
 20
32.47635654923278
 30
0.0
 10
85.96540453908807
 20
32.47635654923278
 30
0.0
 10
85.34290698049432
 20
32.47635654923278
 30
0.0
 10
85.34290698049432
 20
32.47035603043395
 30
0.0
 10
85.34290698049432
 20
32.46435551163512
 30
0.0
 10
84.27890398977166
 20
32.46435551163512
 30
0.0
 10
83.21490099904901
 20
32.46435551163512
 30
0.0
 10
83.21490099904901
 20
36.14101700302916
 30
0.0
 10
83.21490099904901
 20
39.81767849442321
 30
0.0
 10
83.19340136525994
 20
39.8410168122943
 30
0.0
 10
83.17190173147088
 20
39.86435513016539
 30
0.0
 10
83.04240420339471
 20
40.01635555741149
 30
0.0
 10
82.91290667531854
 20
40.16835598465758
 30
0.0
 10
82.69140627859002
 20
40.44935612198668
 30
0.0
 10
82.46990588186151
 20
40.73035625931578
 30
0.0
 10
82.45440676687127
 20
40.75935558792906
 30
0.0
 10
82.43890765188104
 20
40.78835491654235
 30
0.0
 10
82.43890765188104
 20
40.79304508683043
 30
0.0
 10
82.43890765188104
 20
40.79773525711852
 30
0.0
 10
81.94040682790643
 20
40.85754589554625
 30
0.0
 10
81.44190600393182
 20
40.91735653397399
 30
0.0
 10
78.36290362356073
 20
41.33785633560973
 30
0.0
 10
75.28390124318963
 20
41.75835613724547
 30
0.0
 10
72.56690218923455
 20
42.18485645768004
 30
0.0
 10
69.84990313527948
 20
42.61135677811461
 30
0.0
 10
67.46890452382928
 20
43.04185680863219
 30
0.0
 10
65.08790591237909
 20
43.47235683914977
 30
0.0
 10
63.01490595815545
 20
43.90585712906676
 30
0.0
 10
60.94190600393182
 20
44.33935741898375
 30
0.0
 10
59.1539058971203
 20
44.77685741898375
 30
0.0
 10
57.36590579030877
 20
45.21435741898375
 30
0.0
 10
55.83790591237909
 20
45.65285686966735
 30
0.0
 10
54.3099060344494
 20
46.09135632035094
 30
0.0
 10
53.01390460012323
 20
46.53085712906676
 30
0.0
 10
51.71790316579705
 20
46.97035793778258
 30
0.0
 10
50.62890437124139
 20
47.40785793778258
 30
0.0
 10
49.53990557668573
 20
47.84535793778258
 30
0.0
 10
48.63390543935662
 20
48.28385738846617
 30
0.0
 10
47.72790530202752
 20
48.72235683914977
 30
0.0
 10
46.97790530202752
 20
49.15835575577574
 30
0.0
 10
46.22790530202752
 20
49.59435467240172
 30
0.0
 10
45.60890391347772
 20
50.02585606095153
 30
0.0
 10
44.98990252492791
 20
50.45735744950133
 30
0.0
 10
44.4769039439953
 20
50.88685612198668
 30
0.0
 10
43.96390536306268
 20
51.31635479447203
 30
0.0
 10
43.52990534780389
 20
51.73785595414
 30
0.0
 10
43.0959053325451
 20
52.15935711380797
 30
0.0
 10
40.99390414235955
 20
54.54735760208922
 30
0.0
 10
38.89190295217401
 20
56.93535809037047
 30
0.0
 10
38.18190386770135
 20
57.65785793778258
 30
0.0
 10
37.47190478322869
 20
58.38035778519469
 30
0.0
 10
36.7259044933117
 20
59.06135754105406
 30
0.0
 10
35.97990420339471
 20
59.74235729691344
 30
0.0
 10
35.17990401265985
 20
60.37435726639586
 30
0.0
 10
34.37990382192498
 20
61.00635723587828
 30
0.0
 10
33.5079040813244
 20
61.58885769364196
 30
0.0
 10
32.63590434072381
 20
62.17135815140563
 30
0.0
 10
31.67490389821893
 20
62.69935802933531
 30
0.0
 10
30.71390345571405
 20
63.227357907265
 30
0.0
 10
29.64890387533075
 20
63.69485668656188
 30
0.0
 10
28.58390429494744
 20
64.16235546585875
 30
0.0
 10
27.52990439412957
 20
64.53285603043395
 30
0.0
 10
26.4759044933117
 20
64.90335659500914
 30
0.0
 10
25.34390452382928
 20
65.22335628983336
 30
0.0
 10
24.21190455434686
 20
65.54335598465758
 30
0.0
 10
23.02790453908807
 20
65.81885532852965
 30
0.0
 10
21.84390452382928
 20
66.09435467240172
 30
0.0
 10
20.62890437124139
 20
66.32585529801207
 30
0.0
 10
19.4139042186535
 20
66.55735592362242
 30
0.0
 10
18.19090416906243
 20
66.74935535904723
 30
0.0
 10
16.96790411947137
 20
66.94135479447203
 30
0.0
 10
15.76190426824456
 20
67.09385494705992
 30
0.0
 10
14.55590441701776
 20
67.24635509964781
 30
0.0
 10
13.38490441320306
 20
67.36435513016539
 30
0.0
 10
12.21390440938836
 20
67.48235516068297
 30
0.0
 10
11.10390427587396
 20
67.56735615250426
 30
0.0
 10
9.993904142359554
 20
67.65235714432555
 30
0.0
 10
6.478904186466991
 20
62.44885639664489
 30
0.0
 10
2.963904230574428
 20
57.24535564896422
 30
0.0
 10
-0.5500958574020274
 20
62.44885639664489
 30
0.0
 10
-4.064095945378483
 20
67.65235714432555
 30
0.0
 10
-5.17509576799506
 20
67.56835751053649
 30
0.0
 10
-6.286095590611637
 20
67.48435787674742
 30
0.0
 10
-7.456095666905583
 20
67.36635784622985
 30
0.0
 10
-8.626095743199528
 20
67.24835781571227
 30
0.0
 10
-9.834095926304997
 20
67.09485630509215
 30
0.0
 10
-11.04209610941047
 20
66.94135479447203
 30
0.0
 10
-12.26409575464362
 20
66.75035480973082
 30
0.0
 10
-13.48609539987677
 20
66.55935482498961
 30
0.0
 10
-14.70109555246466
 20
66.32685474869567
 30
0.0
 10
-15.91609570505256
 20
66.09435467240172
 30
0.0
 10
-17.10009572031134
 20
65.81885532852965
 30
0.0
 10
-18.28409573557013
 20
65.54335598465758
 30
0.0
 10
-19.41509530069465
 20
65.22335628983336
 30
0.0
 10
-20.54609486581916
 20
64.90335659500914
 30
0.0
 10
-21.60109517099494
 20
64.53385738846617
 30
0.0
 10
-22.65609547617072
 20
64.1643581819232
 30
0.0
 10
-23.72209546091193
 20
63.6958580445941
 30
0.0
 10
-24.78809544565314
 20
63.227357907265
 30
0.0
 10
-25.74809548380011
 20
62.69935802933531
 30
0.0
 10
-26.70809552194709
 20
62.17135815140563
 30
0.0
 10
-27.57909581186408
 20
61.58985714432555
 30
0.0
 10
-28.45009610178107
 20
61.00835613724547
 30
0.0
 10
-29.25109669687384
 20
60.37535671707946
 30
0.0
 10
-30.05209729196662
 20
59.74235729691344
 30
0.0
 10
-30.7990970325672
 20
59.06135754105406
 30
0.0
 10
-31.54609677316779
 20
58.38035778519469
 30
0.0
 10
-32.25509640695685
 20
57.65785793778258
 30
0.0
 10
-32.96409604074591
 20
56.93535809037047
 30
0.0
 10
-35.06609532358283
 20
54.54935650345641
 30
0.0
 10
-37.16809460641974
 20
52.16335491654235
 30
0.0
 10
-37.60109517099494
 20
51.73985485550719
 30
0.0
 10
-38.03409573557013
 20
51.31635479447203
 30
0.0
 10
-38.54809567453498
 20
50.88885502335387
 30
0.0
 10
-39.06209561349982
 20
50.46135525223571
 30
0.0
 10
-39.6800956440174
 20
50.02785496231871
 30
0.0
 10
-40.29809567453498
 20
49.59435467240172
 30
0.0
 10
-41.04809567453498
 20
49.15835575577574
 30
0.0
 10
-41.79809567453498
 20
48.72235683914977
 30
0.0
 10
-42.70409581186408
 20
48.28585628983336
 30
0.0
 10
-43.61009594919318
 20
47.84935574051696
 30
0.0
 10
-44.69909665109748
 20
47.40985683914977
 30
0.0
 10
-45.78809735300177
 20
46.97035793778258
 30
0.0
 10
-47.08409687997931
 20
46.53185657975035
 30
0.0
 10
-48.38009640695685
 20
46.09335522171813
 30
0.0
 10
-49.91009518625373
 20
45.65385632035094
 30
0.0
 10
-51.4400939655506
 20
45.21435741898375
 30
0.0
 10
-53.22709462167853
 20
44.77885632035094
 30
0.0
 10
-55.01409527780646
 20
44.34335522171813
 30
0.0
 10
-57.0860957813465
 20
43.90785603043395
 30
0.0
 10
-59.15809628488654
 20
43.47235683914977
 30
0.0
 10
-61.54109761240119
 20
43.04185680863219
 30
0.0
 10
-63.92409893991584
 20
42.61135677811461
 30
0.0
 10
-66.64109799387091
 20
42.18485645768004
 30
0.0
 10
-69.35809704782599
 20
41.75835613724547
 30
0.0
 10
-72.43509671213263
 20
41.33785633560973
 30
0.0
 10
-75.51209637643927
 20
40.91735653397399
 30
0.0
 10
-76.40686795236701
 20
40.81031994339781
 30
0.0
 10
-77.30163952829474
 20
40.70328335282164
 30
0.0
 10
-77.32086941721076
 20
40.69031910416442
 30
0.0
 10
-77.34009930612677
 20
40.67735485550719
 30
0.0
 10
-77.40409848215216
 20
40.6438560914691
 30
0.0
 10
-77.46809765817756
 20
40.61035732743102
 30
0.0
 10
-77.60409543039435
 20
40.53785709854918
 30
0.0
 10
-77.74009320261115
 20
40.46535686966735
 30
0.0
 10
-77.85459515573615
 20
40.3898563813861
 30
0.0
 10
-77.96909710886115
 20
40.31435589310485
 30
0.0
 10
-78.06459805490607
 20
40.23685650345641
 30
0.0
 10
-78.16009900095099
 20
40.15935711380797
 30
0.0
 10
-78.18259808542365
 20
40.13699917313414
 30
0.0
 10
-78.2050971698963
 20
40.11464123246031
 30
0.0
 10
-78.2050971698963
 20
36.32749847885924
 30
0.0
 10
-78.2050971698963
 20
32.54035572525817
 30
0.0
 10
-79.1075973224842
 20
32.54035572525817
 30
0.0
 10
-80.01009747507209
 20
32.54035572525817
 30
0.0
 10
-80.01009747507209
 20
32.55535606858092
 30
0.0
 10
-80.01009747507209
 20
32.57035641190367
 30
0.0
 10
-80.62259671213263
 20
32.57035641190367
 30
0.0
 10
-81.23509594919318
 20
32.57035641190367
 30
0.0
 10
-81.23509594919318
 20
31.75535683152037
 30
0.0
 10
-81.23509594919318
 20
30.94035725113707
 30
0.0
 10
-81.23659512521857
 20
30.9208565187152
 30
0.0
 10
-81.23809430124396
 20
30.90135578629332
 30
0.0
 10
-81.24359509470099
 20
30.88235573288756
 30
0.0
 10
-81.24909588815802
 20
30.8633556794818
 30
0.0
 10
-81.25859448434943
 20
30.84535603043395
 30
0.0
 10
-81.26809308054084
 20
30.8273563813861
 30
0.0
 10
-81.28009411813849
 20
30.81035618302184
 30
0.0
 10
-81.29209515573615
 20
30.79335598465758
 30
0.0
 10
-81.30759427072638
 20
30.77835659500914
 30
0.0
 10
-81.32309338571662
 20
30.76335720536071
 30
0.0
 10
-81.3410949421131
 20
30.75085644242125
 30
0.0
 10
-81.35909649850959
 20
30.7383556794818
 30
0.0
 10
-81.37909695627326
 20
30.72785572525817
 30
0.0
 10
-81.39909741403693
 20
30.71735577103453
 30
0.0
 10
-81.42109677316779
 20
30.70985607621031
 30
0.0
 10
-81.44309613229865
 20
30.7023563813861
 30
0.0
 10
-81.4655952167713
 20
30.69785599228697
 30
0.0
 10
-81.48809430124396
 20
30.69335560318785
 30
0.0
 10
-81.51209637643927
 20
30.69185642716246
 30
0.0
 10
-81.53609845163459
 20
30.69035725113707
 30
0.0
 10
-82.13759610178107
 20
30.69035725113707
 30
0.0
 10
-82.73909375192756
 20
30.69035725113707
 30
0.0
 10
-82.76259610178107
 20
30.69185642716246
 30
0.0
 10
-82.78609845163459
 20
30.69335560318785
 30
0.0
 10
-82.80909726144904
 20
30.69785599228697
 30
0.0
 10
-82.83209607126349
 20
30.7023563813861
 30
0.0
 10
-82.85359570505256
 20
30.70985607621031
 30
0.0
 10
-82.87509533884162
 20
30.71735577103453
 30
0.0
 10
-82.89559552194709
 20
30.72785572525817
 30
0.0
 10
-82.91609570505256
 20
30.7383556794818
 30
0.0
 10
-82.93409726144904
 20
30.75085644242125
 30
0.0
 10
-82.95209881784552
 20
30.76335720536071
 30
0.0
 10
-82.96709820749396
 20
30.77835659500914
 30
0.0
 10
-82.9820975971424
 20
30.79335598465758
 30
0.0
 10
-82.99459836008185
 20
30.81035618302184
 30
0.0
 10
-83.0070991230213
 20
30.8273563813861
 30
0.0
 10
-83.01609799387091
 20
30.84535603043395
 30
0.0
 10
-83.02509686472052
 20
30.8633556794818
 30
0.0
 10
-83.03059765817756
 20
30.88235573288756
 30
0.0
 10
-83.03609845163459
 20
30.90135578629332
 30
0.0
 10
-83.03809735300177
 20
30.9208565187152
 30
0.0
 10
-83.04009625436896
 20
30.94035725113707
 30
0.0
 10
-83.04009625436896
 20
33.69285683152037
 30
0.0
 10
-83.04009625436896
 20
36.44535641190367
 30
0.0
 10
-83.03809735300177
 20
36.46485619065123
 30
0.0
 10
-83.03609845163459
 20
36.48435596939879
 30
0.0
 10
-83.03059765817756
 20
36.50335602280455
 30
0.0
 10
-83.02509686472052
 20
36.52235607621031
 30
0.0
 10
-83.01609799387091
 20
36.54035667893248
 30
0.0
 10
-83.0070991230213
 20
36.55835728165465
 30
0.0
 10
-82.99459836008185
 20
36.57535652634459
 30
0.0
 10
-82.9820975971424
 20
36.59235577103453
 30
0.0
 10
-82.96709820749396
 20
36.60735611435729
 30
0.0
 10
-82.95209881784552
 20
36.62235645768004
 30
0.0
 10
-82.93409726144904
 20
36.63485626694518
 30
0.0
 10
-82.91609570505256
 20
36.64735607621031
 30
0.0
 10
-82.89559552194709
 20
36.65785603043395
 30
0.0
 10
-82.87509533884162
 20
36.66835598465758
 30
0.0
 10
-82.85359570505256
 20
36.67585663315612
 30
0.0
 10
-82.83209607126349
 20
36.68335728165465
 30
0.0
 10
-82.80909726144904
 20
36.68785671707946
 30
0.0
 10
-82.78609845163459
 20
36.69235615250426
 30
0.0
 10
-82.76259610178107
 20
36.69385628220397
 30
0.0
 10
-82.73909375192756
 20
36.69535641190367
 30
0.0
 10
-82.13759610178107
 20
36.69535641190367
 30
0.0
 10
-81.53609845163459
 20
36.69535641190367
 30
0.0
 10
-81.51209637643927
 20
36.69385628220397
 30
0.0
 10
-81.48809430124396
 20
36.69235615250426
 30
0.0
 10
-81.4655952167713
 20
36.68785671707946
 30
0.0
 10
-81.44309613229865
 20
36.68335728165465
 30
0.0
 10
-81.42109677316779
 20
36.67585663315612
 30
0.0
 10
-81.39909741403693
 20
36.66835598465758
 30
0.0
 10
-81.37909695627326
 20
36.65785603043395
 30
0.0
 10
-81.35909649850959
 20
36.64735607621031
 30
0.0
 10
-81.3410949421131
 20
36.63485626694518
 30
0.0
 10
-81.32309338571662
 20
36.62235645768004
 30
0.0
 10
-81.30759427072638
 20
36.60735611435729
 30
0.0
 10
-81.29209515573615
 20
36.59235577103453
 30
0.0
 10
-81.28009411813849
 20
36.57535652634459
 30
0.0
 10
-81.26809308054084
 20
36.55835728165465
 30
0.0
 10
-81.25859448434943
 20
36.54035667893248
 30
0.0
 10
-81.24909588815802
 20
36.52235607621031
 30
0.0
 10
-81.24359509470099
 20
36.50335602280455
 30
0.0
 10
-81.23809430124396
 20
36.48435596939879
 30
0.0
 10
-81.23659512521857
 20
36.46485619065123
 30
0.0
 10
-81.23509594919318
 20
36.44535641190367
 30
0.0
 10
-81.23509594919318
 20
35.41035656449156
 30
0.0
 10
-81.23509594919318
 20
34.37535671707946
 30
0.0
 10
-80.62259671213263
 20
34.37535671707946
 30
0.0
 10
-80.01009747507209
 20
34.37535671707946
 30
0.0
 10
-80.01009747507209
 20
37.16942028519469
 30
0.0
 10
-80.01009747507209
 20
39.96348385330992
 30
0.0
 10
-80.06709668161506
 20
40.00242046830016
 30
0.0
 10
-80.12409588815802
 20
40.04135708329039
 30
0.0
 10
-80.20259472849006
 20
40.0773563813861
 30
0.0
 10
-80.28109356882209
 20
40.1133556794818
 30
0.0
 10
-80.36459347726935
 20
40.1388569307025
 30
0.0
 10
-80.44809338571662
 20
40.16435818192321
 30
0.0
 10
-80.53409573557013
 20
40.18185810562926
 30
0.0
 10
-80.62009808542365
 20
40.19935802933531
 30
0.0
 10
-80.78959652902716
 20
40.21535686966735
 30
0.0
 10
-80.95909497263068
 20
40.23135570999938
 30
0.0
 10
-81.06101605417365
 20
40.23636631485778
 30
0.0
 10
-81.16293713571662
 20
40.24137691971617
 30
0.0
 10
-81.80251690866584
 20
40.16486744400817
 30
0.0
 10
-82.44209668161506
 20
40.08835796830016
 30
0.0
 10
-84.56509778024787
 20
39.68985752579528
 30
0.0
 10
-86.68809887888068
 20
39.29135708329039
 30
0.0
 10
-88.09409710886115
 20
38.97185711380797
 30
0.0
 10
-89.50009533884162
 20
38.65235714432555
 30
0.0
 10
-91.29609677316779
 20
38.18485645768004
 30
0.0
 10
-93.09209820749396
 20
37.71735577103453
 30
0.0
 10
-93.5180968952381
 20
37.56785587784606
 30
0.0
 10
-93.94409558298224
 20
37.41835598465758
 30
0.0
 10
-94.36409756662482
 20
37.22335628983336
 30
0.0
 10
-94.7840995502674
 20
37.02835659500914
 30
0.0
 10
-95.20009610178107
 20
36.78585628983336
 30
0.0
 10
-95.61609265329474
 20
36.54335598465758
 30
0.0
 10
-96.02709576608771
 20
36.25785641190367
 30
0.0
 10
-96.43809887888068
 20
35.97235683914977
 30
0.0
 10
-96.84409710886115
 20
35.64435677048522
 30
0.0
 10
-97.25009533884162
 20
35.31635670182067
 30
0.0
 10
-97.64809414865607
 20
34.94585613724547
 30
0.0
 10
-98.04609295847052
 20
34.57535557267028
 30
0.0
 10
-98.43609616281623
 20
34.16485599991637
 30
0.0
 10
-98.82609936716193
 20
33.75435642716246
 30
0.0
 10
-99.20709607126349
 20
33.30685619828063
 30
0.0
 10
-99.58809277536506
 20
32.85935596939879
 30
0.0
 10
-99.96109387399787
 20
32.37535576340514
 30
0.0
 10
-100.3340949726307
 20
31.89135555741149
 30
0.0
 10
-100.697093935033
 20
31.37285618302184
 30
0.0
 10
-101.0600928974354
 20
30.85435680863219
 30
0.0
 10
-101.7510947895252
 20
29.72485641953307
 30
0.0
 10
-102.4420966816151
 20
28.59535603043395
 30
0.0
 10
-103.0850944233143
 20
27.35885624405699
 30
0.0
 10
-103.7280921650135
 20
26.12235645768004
 30
0.0
 10
-104.3170928669178
 20
24.79385666367369
 30
0.0
 10
-104.9060935688221
 20
23.46535686966735
 30
0.0
 10
-105.4360961628162
 20
22.07035641190367
 30
0.0
 10
-105.9660987568104
 20
20.67535595414
 30
0.0
 10
-106.4330978107654
 20
19.23185638901549
 30
0.0
 10
-106.9000968647205
 20
17.78835682389098
 30
0.0
 10
-107.2990951252186
 20
16.32035641190367
 30
0.0
 10
-107.6980933857166
 20
14.85235599991637
 30
0.0
 10
-108.0260963154041
 20
13.38335613724547
 30
0.0
 10
-108.3540992450916
 20
11.91435627457457
 30
0.0
 10
-108.608097047826
 20
10.46485630986052
 30
0.0
 10
-108.8620948505604
 20
9.015356345146472
 30
0.0
 10
-109.040096254369
 20
7.609356356828982
 30
0.0
 10
-109.2180976581776
 20
6.203356368511493
 30
0.0
 10
-109.3170966816151
 20
4.862856341570193
 30
0.0
 10
-109.4160957050526
 20
3.522356314628894
 30
0.0
 10
-109.4330939960682
 20
2.269856376617724
 30
0.0
 10
-109.4500922870838
 20
1.017356438606555
 30
0.0
 10
-109.4210929584705
 20
0.3343563508685179
 30
0.0
 10
-109.3920936298572
 20
-0.3486437368695192
 30
0.0
 10
-109.3250961017811
 20
-0.9996437597577028
 30
0.0
 10
-109.2580985737049
 20
-1.650643782645886
 30
0.0
 10
-109.1420974445545
 20
-2.27514381888551
 30
0.0
 10
-109.0260963154041
 20
-2.899643855125134
 30
0.0
 10
-108.8530959797108
 20
-3.500643687278455
 30
0.0
 10
-108.6800956440174
 20
-4.101643519431775
 30
0.0
 10
-108.4370956134998
 20
-4.685143427879041
 30
0.0
 10
-108.1940955829822
 20
-5.268643336326306
 30
0.0
 10
-107.8750953388416
 20
-5.839643435508435
 30
0.0
 10
-107.556095094701
 20
-6.410643534690564
 30
0.0
 10
-107.1490935993397
 20
-6.972143607169812
 30
0.0
 10
-106.7420921039783
 20
-7.53364367964906
 30
0.0
 10
-106.2430953693592
 20
-8.086143450767224
 30
0.0
 10
-105.7440986347401
 20
-8.638643221885388
 30
0.0
 10
-105.1420974445545
 20
-9.190643267661756
 30
0.0
 10
-104.540096254369
 20
-9.742643313438123
 30
0.0
 10
-103.8287138460522
 20
-10.30462336776231
 30
0.0
 10
-103.1173314377354
 20
-10.8666034220865
 30
0.0
  0
SPLINE
  5
71
330
1F
100
AcDbEntity
  8
Layer 01
100
AcDbSpline
210
0.0
220
0.0
230
1.0
 70
     8
 71
     2
 72
   168
 73
   165
 74
     0
 42
0.000000001
 43
0.0000000001
 40
-476.0
 40
-476.0
 40
-476.0
 40
-474.0748526541857
 40
-474.0748526541857
 40
-473.0767246728233
 40
-473.0767246728233
 40
-472.0785966914607
 40
-472.0785966914607
 40
-471.0804687100982
 40
-471.0804687100982
 40
-470.0823407287357
 40
-470.0823407287357
 40
-469.0842127473732
 40
-469.0842127473732
 40
-468.0860847660107
 40
-468.0860847660107
 40
-467.0879567846482
 40
-467.0879567846482
 40
-466.0898288032857
 40
-466.0898288032857
 40
-465.0917008219232
 40
-465.0917008219232
 40
-464.0935728405606
 40
-464.0935728405606
 40
-463.0954448591982
 40
-463.0954448591982
 40
-462.0973168778356
 40
-462.0973168778356
 40
-461.0991888964731
 40
-461.0991888964731
 40
-460.1010609151106
 40
-460.1010609151106
 40
-459.1029329337481
 40
-459.1029329337481
 40
-458.1048049523856
 40
-458.1048049523856
 40
-457.1066769710231
 40
-457.1066769710231
 40
-456.1085489896606
 40
-456.1085489896606
 40
-455.110421008298
 40
-455.110421008298
 40
-454.1122930269355
 40
-454.1122930269355
 40
-453.114165045573
 40
-453.114165045573
 40
-452.1160370642105
 40
-452.1160370642105
 40
-451.117909082848
 40
-451.117909082848
 40
-450.1197811014855
 40
-450.1197811014855
 40
-449.121653120123
 40
-449.121653120123
 40
-448.1235251387604
 40
-448.1235251387604
 40
-447.125397157398
 40
-447.125397157398
 40
-446.1272691760354
 40
-446.1272691760354
 40
-445.1291411946729
 40
-445.1291411946729
 40
-444.1310132133104
 40
-444.1310132133104
 40
-443.1328852319479
 40
-443.1328852319479
 40
-442.1347572505854
 40
-442.1347572505854
 40
-441.1366292692229
 40
-441.1366292692229
 40
-440.1385012878604
 40
-440.1385012878604
 40
-439.1403733064978
 40
-439.1403733064978
 40
-438.1422453251353
 40
-438.1422453251353
 40
-437.1441173437728
 40
-437.1441173437728
 40
-436.1459893624104
 40
-436.1459893624104
 40
-435.1478613810479
 40
-435.1478613810479
 40
-434.1497333996854
 40
-434.1497333996854
 40
-433.1516054183229
 40
-433.1516054183229
 40
-432.1534774369604
 40
-432.1534774369604
 40
-431.1553494555978
 40
-431.1553494555978
 40
-430.1572214742354
 40
-430.1572214742354
 40
-429.1590934928728
 40
-429.1590934928728
 40
-428.1609655115103
 40
-428.1609655115103
 40
-427.1628375301478
 40
-427.1628375301478
 40
-426.1647095487853
 40
-426.1647095487853
 40
-425.1665815674228
 40
-425.1665815674228
 40
-424.1684535860603
 40
-424.1684535860603
 40
-423.1703256046978
 40
-423.1703256046978
 40
-422.1721976233353
 40
-422.1721976233353
 40
-421.1740696419728
 40
-421.1740696419728
 40
-420.1759416606102
 40
-420.1759416606102
 40
-419.1778136792477
 40
-419.1778136792477
 40
-418.1796856978852
 40
-418.1796856978852
 40
-417.1815577165227
 40
-417.1815577165227
 40
-416.1834297351602
 40
-416.1834297351602
 40
-415.1853017537977
 40
-415.1853017537977
 40
-414.1871737724352
 40
-414.1871737724352
 40
-413.1890457910727
 40
-413.1890457910727
 40
-412.1909178097101
 40
-412.1909178097101
 40
-411.1927898283476
 40
-411.1927898283476
 40
-410.1946618469851
 40
-410.1946618469851
 40
-409.1965338656226
 40
-409.1965338656226
 40
-408.1984058842601
 40
-408.1984058842601
 40
-407.2002779028976
 40
-407.2002779028976
 40
-406.2021499215351
 40
-406.2021499215351
 40
-405.2040219401725
 40
-405.2040219401725
 40
-404.2058939588101
 40
-404.2058939588101
 40
-403.2077659774475
 40
-403.2077659774475
 40
-402.209637996085
 40
-402.209637996085
 40
-401.2115100147225
 40
-401.2115100147225
 40
-400.21338203336
 40
-400.21338203336
 40
-399.2152540519975
 40
-399.2152540519975
 40
-398.217126070635
 40
-398.217126070635
 40
-397.2189980892725
 40
-397.2189980892725
 40
-396.2208701079099
 40
-396.2208701079099
 40
-395.2227421265474
 40
-395.2227421265474
 40
-394.2246141451849
 40
-394.2246141451849
 40
-393.6687071829322
 40
-393.6687071829322
 40
-393.6687071829322
 10
-103.1260947895252
 20
-10.84764285567445
 30
0.0
 10
-102.3070945453846
 20
-11.40014358046693
 30
0.0
 10
-101.488094301244
 20
-11.95264430525941
 30
0.0
 10
-100.5570945453846
 20
-12.5116443205182
 30
0.0
 10
-99.62609478952521
 20
-13.07064433577699
 30
0.0
 10
-98.5810966205799
 20
-13.63414378646058
 30
0.0
 10
-97.53609845163459
 20
-14.19764323714418
 30
0.0
 10
-96.37609860422248
 20
-14.76864333632631
 30
0.0
 10
-95.21609875681037
 20
-15.33964343550844
 30
0.0
 10
-93.94809720041388
 20
-15.91914363387269
 30
0.0
 10
-92.6800956440174
 20
-16.49864383223695
 30
0.0
 10
-91.3040961933338
 20
-17.08664412978334
 30
0.0
 10
-89.92809674265021
 20
-17.67464442732972
 30
0.0
 10
-87.29109570505256
 20
-18.72264380934877
 30
0.0
 10
-84.6540946674549
 20
-19.77064319136781
 30
0.0
 10
-82.6934013080799
 20
-20.49591060164613
 30
0.0
 10
-80.7327079487049
 20
-21.22117801192445
 30
0.0
 10
-80.57140347482795
 20
-21.11541076186342
 30
0.0
 10
-80.41009900095099
 20
-21.00964351180238
 30
0.0
 10
-80.19809720041388
 20
-20.84923072341127
 30
0.0
 10
-79.98609539987677
 20
-20.68881793502015
 30
0.0
 10
-79.98609539987677
 20
-17.96923060897035
 30
0.0
 10
-79.98609539987677
 20
-15.24964328292054
 30
0.0
 10
-80.67709729196662
 20
-15.24964328292054
 30
0.0
 10
-81.36809918405646
 20
-15.24964328292054
 30
0.0
 10
-81.36809918405646
 20
-16.78264327529115
 30
0.0
 10
-81.36809918405646
 20
-18.31564326766176
 30
0.0
 10
-81.36959836008185
 20
-18.33564372542543
 30
0.0
 10
-81.37109753610724
 20
-18.3556441831891
 30
0.0
 10
-81.37709805490607
 20
-18.37464423659486
 30
0.0
 10
-81.3830985737049
 20
-18.39364429000062
 30
0.0
 10
-81.39209744455451
 20
-18.41164393904847
 30
0.0
 10
-81.40109631540412
 20
-18.42964358809633
 30
0.0
 10
-81.41309735300177
 20
-18.44664378646058
 30
0.0
 10
-81.42509839059943
 20
-18.46364398482484
 30
0.0
 10
-81.44059750558966
 20
-18.47814364913148
 30
0.0
 10
-81.4560966205799
 20
-18.49264331343812
 30
0.0
 10
-81.47409436227912
 20
-18.50564380171937
 30
0.0
 10
-81.49209210397834
 20
-18.51864429000062
 30
0.0
 10
-81.51209256174201
 20
-18.52864356520814
 30
0.0
 10
-81.53209301950568
 20
-18.53864284041566
 30
0.0
 10
-81.5540961933338
 20
-18.5461434889142
 30
0.0
 10
-81.57609936716193
 20
-18.55364413741273
 30
0.0
 10
-81.59909817697638
 20
-18.55864425185365
 30
0.0
 10
-81.62209698679084
 20
-18.56364436629457
 30
0.0
 10
-81.64559552194709
 20
-18.56514354231996
 30
0.0
 10
-81.66909405710334
 20
-18.56664271834535
 30
0.0
 10
-82.27059552194709
 20
-18.56664271834535
 30
0.0
 10
-82.87209698679084
 20
-18.56664271834535
 30
0.0
 10
-82.89559552194709
 20
-18.56514354231996
 30
0.0
 10
-82.91909405710334
 20
-18.56364436629457
 30
0.0
 10
-82.94209668161506
 20
-18.55864425185365
 30
0.0
 10
-82.96509930612677
 20
-18.55364413741273
 30
0.0
 10
-82.98709866525763
 20
-18.5461434889142
 30
0.0
 10
-83.00909802438849
 20
-18.53864284041566
 30
0.0
 10
-83.02909848215216
 20
-18.52864356520814
 30
0.0
 10
-83.04909893991584
 20
-18.51864429000062
 30
0.0
 10
-83.06709668161506
 20
-18.50564380171937
 30
0.0
 10
-83.08509442331427
 20
-18.49264331343812
 30
0.0
 10
-83.10009381296271
 20
-18.47814364913148
 30
0.0
 10
-83.11509320261115
 20
-18.46364398482484
 30
0.0
 10
-83.1275939655506
 20
-18.44664378646058
 30
0.0
 10
-83.14009472849006
 20
-18.42964358809633
 30
0.0
 10
-83.14909359933966
 20
-18.41164393904847
 30
0.0
 10
-83.15809247018927
 20
-18.39364429000062
 30
0.0
 10
-83.1635932636463
 20
-18.37464423659486
 30
0.0
 10
-83.16909405710334
 20
-18.3556441831891
 30
0.0
 10
-83.17109677316779
 20
-18.33564372542543
 30
0.0
 10
-83.17309948923224
 20
-18.31564326766176
 30
0.0
 10
-83.17309948923224
 20
-15.56364341262025
 30
0.0
 10
-83.17309948923224
 20
-12.81164355757875
 30
0.0
 10
-83.17109677316779
 20
-12.79214377883119
 30
0.0
 10
-83.16909405710334
 20
-12.77264400008363
 30
0.0
 10
-83.1635932636463
 20
-12.75364394667787
 30
0.0
 10
-83.15809247018927
 20
-12.73464389327211
 30
0.0
 10
-83.14909359933966
 20
-12.71614356520814
 30
0.0
 10
-83.14009472849006
 20
-12.69764323714418
 30
0.0
 10
-83.1275939655506
 20
-12.68114371779603
 30
0.0
 10
-83.11509320261115
 20
-12.66464419844789
 30
0.0
 10
-83.10009381296271
 20
-12.64964385512513
 30
0.0
 10
-83.08509442331427
 20
-12.63464351180238
 30
0.0
 10
-83.06709668161506
 20
-12.62164397719545
 30
0.0
 10
-83.04909893991584
 20
-12.60864444258851
 30
0.0
 10
-83.02909848215216
 20
-12.59864421370668
 30
0.0
 10
-83.00909802438849
 20
-12.58864398482484
 30
0.0
 10
-82.98709866525763
 20
-12.58114429000062
 30
0.0
 10
-82.96509930612677
 20
-12.5736445951764
 30
0.0
 10
-82.94209668161506
 20
-12.56914420607728
 30
0.0
 10
-82.91909405710334
 20
-12.56464381697816
 30
0.0
 10
-82.89559552194709
 20
-12.56314368727845
 30
0.0
 10
-82.87209698679084
 20
-12.56164355757875
 30
0.0
 10
-82.27059552194709
 20
-12.56164355757875
 30
0.0
 10
-81.66909405710334
 20
-12.56164355757875
 30
0.0
 10
-81.64559552194709
 20
-12.56314368727845
 30
0.0
 10
-81.62209698679084
 20
-12.56464381697816
 30
0.0
 10
-81.59909817697638
 20
-12.56914420607728
 30
0.0
 10
-81.57609936716193
 20
-12.5736445951764
 30
0.0
 10
-81.5540961933338
 20
-12.58114429000062
 30
0.0
 10
-81.53209301950568
 20
-12.58864398482484
 30
0.0
 10
-81.51209256174201
 20
-12.59864421370668
 30
0.0
 10
-81.49209210397834
 20
-12.60864444258851
 30
0.0
 10
-81.47409436227912
 20
-12.62164397719545
 30
0.0
 10
-81.4560966205799
 20
-12.63464351180238
 30
0.0
 10
-81.44059750558966
 20
-12.64964385512513
 30
0.0
 10
-81.42509839059943
 20
-12.66464419844789
 30
0.0
 10
-81.41309735300177
 20
-12.68114371779603
 30
0.0
 10
-81.40109631540412
 20
-12.69764323714418
 30
0.0
 10
-81.39209744455451
 20
-12.71614356520814
 30
0.0
 10
-81.3830985737049
 20
-12.73464389327211
 30
0.0
 10
-81.37709805490607
 20
-12.75364394667787
 30
0.0
 10
-81.37109753610724
 20
-12.77264400008363
 30
0.0
 10
-81.36959836008185
 20
-12.79214377883119
 30
0.0
 10
-81.36809918405646
 20
-12.81164355757875
 30
0.0
 10
-81.36809918405646
 20
-13.12814326766176
 30
0.0
 10
-81.36809918405646
 20
-13.44464297774476
 30
0.0
 10
-80.67709729196662
 20
-13.44464297774476
 30
0.0
 10
-79.98609539987677
 20
-13.44464297774476
 30
0.0
 10
-79.98609539987677
 20
-13.43814368727845
 30
0.0
 10
-79.98609539987677
 20
-13.43164439681215
 30
0.0
 10
-79.11509701730841
 20
-13.43164439681215
 30
0.0
 10
-78.24409863474006
 20
-13.43164439681215
 30
0.0
 10
-78.24409863474006
 20
-17.29988189223451
 30
0.0
 10
-78.24409863474006
 20
-21.16811938765687
 30
0.0
 10
-78.16459652902716
 20
-21.38138194564027
 30
0.0
 10
-78.08509442331427
 20
-21.59464450362367
 30
0.0
 10
-77.99909588815802
 20
-21.77464385512513
 30
0.0
 10
-77.91309735300177
 20
-21.9546432066266
 30
0.0
 10
-77.82847210886115
 20
-22.09119601729554
 30
0.0
 10
-77.74384686472052
 20
-22.22774882796449
 30
0.0
 10
-77.19197079660529
 20
-22.38319583419008
 30
0.0
 10
-76.64009472849006
 20
-22.53864284041566
 30
0.0
 10
-75.38109585764045
 20
-22.86364360335511
 30
0.0
 10
-74.12209698679084
 20
-23.18864436629457
 30
0.0
 10
-71.18509671213263
 20
-23.86064429763002
 30
0.0
 10
-68.24809643747443
 20
-24.53264422896547
 30
0.0
 10
-64.76409527780646
 20
-25.22764392378969
 30
0.0
 10
-61.28009411813849
 20
-25.9226436186139
 30
0.0
 10
-57.27109524728888
 20
-26.62864299300355
 30
0.0
 10
-53.26209637643927
 20
-27.3346423673932
 30
0.0
 10
-48.74509617807502
 20
-28.03714366439027
 30
0.0000000000006149
 10
-44.22809597971076
 20
-28.73964496138734
 30
0.0000000000012298
 10
-39.22409626962775
 20
-29.42864413741273
 30
0.0000000000006149
 10
-34.22009655954474
 20
-30.11764331343812
 30
0.0
 10
-30.35009572031134
 20
-30.51614375594301
 30
0.0
 10
-26.48009488107795
 20
-30.91464419844789
 30
0.0
 10
-24.88009545328254
 20
-31.18214412215394
 30
0.0
 10
-23.28009602548713
 20
-31.44964404586
 30
0.0
 10
-17.36109587671393
 20
-32.07714457991761
 30
0.0
 10
-11.44209572794074
 20
-32.70464511397523
 30
0.0
 10
-11.34909579279059
 20
-32.72864528182191
 30
0.0
 10
-11.25609585764045
 20
-32.75264544966859
 30
0.0
 10
-11.17309567453498
 20
-32.80814548018617
 30
0.0
 10
-11.09009549142951
 20
-32.86364551070375
 30
0.0
 10
-11.03509566309089
 20
-32.94064517501039
 30
0.0
 10
-10.98009583475226
 20
-33.01764483931703
 30
0.0
 10
-10.96009585382575
 20
-33.10164447310609
 30
0.0
 10
-10.94009587289924
 20
-33.18564410689515
 30
0.0
 10
-10.95409581186408
 20
-33.26964374068422
 30
0.0
 10
-10.96809575082892
 20
-33.35364337447328
 30
0.0
 10
-11.01609560968512
 20
-33.43564410689515
 30
0.0
 10
-11.06409546854132
 20
-33.51764483931703
 30
0.0
 10
-11.14209553720588
 20
-33.57714457991761
 30
0.0
 10
-11.22009560587043
 20
-33.6366443205182
 30
0.0
 10
-11.27077806247173
 20
-33.65335212811563
 30
0.0
 10
-11.32146051907303
 20
-33.67005993571306
 30
0.0
  0
POLYLINE
  5
72
330
1F
100
AcDbEntity
  8
Layer 01
100
AcDb2dPolyline
 66
     1
 10
0.0
 20
0.0
 30
0.0
 70
     1
  0
VERTEX
  5
73
330
72
100
AcDbEntity
  8
Layer 01
100
AcDbVertex
100
AcDb2dVertex
 10
-68.24809643747443
 20
-22.43264384749574
 30
0.0
  0
VERTEX
  5
74
330
72
100
AcDbEntity
  8
Layer 01
100
AcDbVertex
100
AcDb2dVertex
 10
-67.75009533884162
 20
-20.21764369490785
 30
0.0
  0
VERTEX
  5
75
330
72
100
AcDbEntity
  8
Layer 01
100
AcDbVertex
100
AcDb2dVertex
 10
-52.76609417917365
 20
-22.85264392378969
 30
0.0
  0
VERTEX
  5
76
330
72
100
AcDbEntity
  8
Layer 01
100
AcDbVertex
100
AcDb2dVertex
 10
-53.26209637643927
 20
-25.06764407637758
 30
0.0
  0
SEQEND
  5
77
330
72
100
AcDbEntity
  8
Layer 01
  0
POLYLINE
  5
78
330
1F
100
AcDbEntity
  8
Layer 01
100
AcDb2dPolyline
 66
     1
 10
0.0
 20
0.0
 30
0.0
  0
VERTEX
  5
79
330
78
100
AcDbEntity
  8
Layer 01
100
AcDbVertex
100
AcDb2dVertex
 10
-102.3671486594209
 20
0.3367290168829693
 30
0.0
  0
VERTEX
  5
7A
330
78
100
AcDbEntity
  8
Layer 01
100
AcDbVertex
100
AcDb2dVertex
 10
-102.6740989399158
 20
0.3163562249835081
 30
0.0
  0
VERTEX
  5
7B
330
78
100
AcDbEntity
  8
Layer 01
100
AcDbVertex
100
AcDb2dVertex
 10
-103.1360969257557
 20
0.3703561258013792
 30
0.0
  0
VERTEX
  5
7C
330
78
100
AcDbEntity
  8
Layer 01
100
AcDbVertex
100
AcDb2dVertex
 10
-103.5700950336658
 20
0.5023565721209593
 30
0.0
  0
VERTEX
  5
7D
330
78
100
AcDbEntity
  8
Layer 01
100
AcDbVertex
100
AcDb2dVertex
 10
-103.9600944233143
 20
0.7083564233477659
 30
0.0
  0
VERTEX
  5
7E
330
78
100
AcDbEntity
  8
Layer 01
100
AcDbVertex
100
AcDb2dVertex
 10
-104.2960929584705
 20
0.9813561868365355
 30
0.0
  0
SEQEND
  5
7F
330
78
100
AcDbEntity
  8
Layer 01
  0
POLYLINE
  5
80
330
1F
100
AcDbEntity
  8
Layer 01
100
AcDb2dPolyline
 66
     1
 10
0.0
 20
0.0
 30
0.0
  0
VERTEX
  5
81
330
80
100
AcDbEntity
  8
Layer 01
100
AcDbVertex
100
AcDb2dVertex
 10
-104.2960929584705
 20
0.9813561868365355
 30
0.0
  0
VERTEX
  5
82
330
80
100
AcDbEntity
  8
Layer 01
100
AcDbVertex
100
AcDb2dVertex
 10
-104.5700950336658
 20
1.313356442421252
 30
0.0
  0
VERTEX
  5
83
330
80
100
AcDbEntity
  8
Layer 01
100
AcDbVertex
100
AcDb2dVertex
 10
-104.7580985737049
 20
1.688356442421252
 30
0.0
  0
VERTEX
  5
84
330
80
100
AcDbEntity
  8
Layer 01
100
AcDbVertex
100
AcDb2dVertex
 10
-104.858097047826
 20
2.080356402366931
 30
0.0
  0
VERTEX
  5
85
330
80
100
AcDbEntity
  8
Layer 01
100
AcDbVertex
100
AcDb2dVertex
 10
-104.9580955219471
 20
2.915356440513904
 30
0.0
  0
VERTEX
  5
86
330
80
100
AcDbEntity
  8
Layer 01
100
AcDbVertex
100
AcDb2dVertex
 10
-105.1340980243885
 20
5.384356347888286
 30
0.0
  0
VERTEX
  5
87
330
80
100
AcDbEntity
  8
Layer 01
100
AcDbVertex
100
AcDb2dVertex
 10
-105.1380958271229
 20
5.444356350272471
 30
0.0
  0
VERTEX
  5
88
330
80
100
AcDbEntity
  8
Layer 01
100
AcDbVertex
100
AcDb2dVertex
 10
-105.1260947895252
 20
8.00235633370238
 30
0.0
  0
VERTEX
  5
89
330
80
100
AcDbEntity
  8
Layer 01
100
AcDbVertex
100
AcDb2dVertex
 10
-105.0100974750721
 20
9.71635632035094
 30
0.0
  0
VERTEX
  5
8A
330
80
100
AcDbEntity
  8
Layer 01
100
AcDbVertex
100
AcDb2dVertex
 10
-104.6700935077869
 20
12.2833562326129
 30
0.0
  0
VERTEX
  5
8B
330
80
100
AcDbEntity
  8
Layer 01
100
AcDbVertex
100
AcDb2dVertex
 10
-104.3340949726307
 20
13.9853563737567
 30
0.0
  0
VERTEX
  5
8C
330
80
100
AcDbEntity
  8
Layer 01
100
AcDbVertex
100
AcDb2dVertex
 10
-103.6640968036854
 20
16.51035599228697
 30
0.0
  0
VERTEX
  5
8D
330
80
100
AcDbEntity
  8
Layer 01
100
AcDbVertex
100
AcDb2dVertex
 10
-102.8040961933338
 20
18.98935608383971
 30
0.0
  0
VERTEX
  5
8E
330
80
100
AcDbEntity
  8
Layer 01
100
AcDbVertex
100
AcDb2dVertex
 10
-101.7580985737049
 20
21.40235619065123
 30
0.0
  0
VERTEX
  5
8F
330
80
100
AcDbEntity
  8
Layer 01
100
AcDbVertex
100
AcDb2dVertex
 10
-100.9640922260486
 20
22.96835712906676
 30
0.0
  0
VERTEX
  5
90
330
80
100
AcDbEntity
  8
Layer 01
100
AcDbVertex
100
AcDb2dVertex
 10
-100.092098207494
 20
24.49235729691344
 30
0.0
  0
VERTEX
  5
91
330
80
100
AcDbEntity
  8
Layer 01
100
AcDbVertex
100
AcDb2dVertex
 10
-99.1540946674549
 20
25.97235683914977
 30
0.0
  0
VERTEX
  5
92
330
80
100
AcDbEntity
  8
Layer 01
100
AcDbVertex
100
AcDb2dVertex
 10
-97.61809918405646
 20
28.09935574051696
 30
0.0
  0
VERTEX
  5
93
330
80
100
AcDbEntity
  8
Layer 01
100
AcDbVertex
100
AcDb2dVertex
 10
-97.32609936716193
 20
28.40735630509215
 30
0.0
  0
VERTEX
  5
94
330
80
100
AcDbEntity
  8
Layer 01
100
AcDbVertex
100
AcDb2dVertex
 10
-96.96209332468146
 20
28.65935711380797
 30
0.0
  0
VERTEX
  5
95
330
80
100
AcDbEntity
  8
Layer 01
100
AcDbVertex
100
AcDb2dVertex
 10
-96.54609295847052
 20
28.84235577103453
 30
0.0
  0
VERTEX
  5
96
330
80
100
AcDbEntity
  8
Layer 01
100
AcDbVertex
100
AcDb2dVertex
 10
-96.10809704782599
 20
28.94635586258727
 30
0.0
  0
VERTEX
  5
97
330
80
100
AcDbEntity
  8
Layer 01
100
AcDbVertex
100
AcDb2dVertex
 10
-95.6540946674549
 20
28.96835712906676
 30
0.0
  0
VERTEX
  5
98
330
80
100
AcDbEntity
  8
Layer 01
100
AcDbVertex
100
AcDb2dVertex
 10
-95.19609448434943
 20
28.90635685440856
 30
0.0
  0
VERTEX
  5
99
330
80
100
AcDbEntity
  8
Layer 01
100
AcDbVertex
100
AcDb2dVertex
 10
-94.76009747507209
 20
28.76535610672789
 30
0.0
  0
VERTEX
  5
9A
330
80
100
AcDbEntity
  8
Layer 01
100
AcDbVertex
100
AcDb2dVertex
 10
-94.37609478952521
 20
28.55335621353942
 30
0.0
  0
VERTEX
  5
9B
330
80
100
AcDbEntity
  8
Layer 01
100
AcDbVertex
100
AcDb2dVertex
 10
-94.08209607126349
 20
28.31135563370543
 30
0.0
  0
VERTEX
  5
9C
330
80
100
AcDbEntity
  8
Layer 01
100
AcDbVertex
100
AcDb2dVertex
 10
-93.82809826852912
 20
28.01135639664489
 30
0.0
  0
VERTEX
  5
9D
330
80
100
AcDbEntity
  8
Layer 01
100
AcDbVertex
100
AcDb2dVertex
 10
-93.63609692575568
 20
27.66035656449156
 30
0.0
  0
VERTEX
  5
9E
330
80
100
AcDbEntity
  8
Layer 01
100
AcDbVertex
100
AcDb2dVertex
 10
-93.52409741403693
 20
27.27835659500914
 30
0.0
  0
VERTEX
  5
9F
330
80
100
AcDbEntity
  8
Layer 01
100
AcDbVertex
100
AcDb2dVertex
 10
-93.49809643747443
 20
26.88335613724547
 30
0.0
  0
VERTEX
  5
A0
330
80
100
AcDbEntity
  8
Layer 01
100
AcDbVertex
100
AcDb2dVertex
 10
-93.55809399606818
 20
26.49535564896422
 30
0.0
  0
VERTEX
  5
A1
330
80
100
AcDbEntity
  8
Layer 01
100
AcDbVertex
100
AcDb2dVertex
 10
-93.69409558298224
 20
26.14235691544371
 30
0.0
  0
VERTEX
  5
A2
330
80
100
AcDbEntity
  8
Layer 01
100
AcDbVertex
100
AcDb2dVertex
 10
-95.26409527780646
 20
23.92735676285582
 30
0.0
  0
VERTEX
  5
A3
330
80
100
AcDbEntity
  8
Layer 01
100
AcDbVertex
100
AcDb2dVertex
 10
-96.5020942402088
 20
21.92935566422301
 30
0.0
  0
VERTEX
  5
A4
330
80
100
AcDbEntity
  8
Layer 01
100
AcDbVertex
100
AcDb2dVertex
 10
-97.25009533884162
 20
20.54335598465758
 30
0.0
  0
VERTEX
  5
A5
330
80
100
AcDbEntity
  8
Layer 01
100
AcDbVertex
100
AcDb2dVertex
 10
-98.23809430124396
 20
18.40935616013365
 30
0.0
  0
VERTEX
  5
A6
330
80
100
AcDbEntity
  8
Layer 01
100
AcDbVertex
100
AcDb2dVertex
 10
-98.53209301950568
 20
17.68235592362242
 30
0.0
  0
VERTEX
  5
A7
330
80
100
AcDbEntity
  8
Layer 01
100
AcDbVertex
100
AcDb2dVertex
 10
-99.30209729196662
 20
15.46335606095153
 30
0.0
  0
VERTEX
  5
A8
330
80
100
AcDbEntity
  8
Layer 01
100
AcDbVertex
100
AcDb2dVertex
 10
-99.90009686472052
 20
13.20635656830626
 30
0.0
  0
VERTEX
  5
A9
330
80
100
AcDbEntity
  8
Layer 01
100
AcDbVertex
100
AcDb2dVertex
 10
-100.322093935033
 20
10.91735653397399
 30
0.0
  0
VERTEX
  5
AA
330
80
100
AcDbEntity
  8
Layer 01
100
AcDbVertex
100
AcDb2dVertex
 10
-100.5680961322986
 20
8.618356270759875
 30
0.0
  0
VERTEX
  5
AB
330
80
100
AcDbEntity
  8
Layer 01
100
AcDbVertex
100
AcDb2dVertex
 10
-100.6100959491932
 20
7.851356310814197
 30
0.0
  0
VERTEX
  5
AC
330
80
100
AcDbEntity
  8
Layer 01
100
AcDbVertex
100
AcDb2dVertex
 10
-100.6320991230213
 20
7.088356299370105
 30
0.0
  0
VERTEX
  5
AD
330
80
100
AcDbEntity
  8
Layer 01
100
AcDbVertex
100
AcDb2dVertex
 10
-100.6220969867908
 20
5.562356350987727
 30
0.0
  0
VERTEX
  5
AE
330
80
100
AcDbEntity
  8
Layer 01
100
AcDbVertex
100
AcDb2dVertex
 10
-100.4580955219471
 20
3.298356337517077
 30
0.0
  0
VERTEX
  5
AF
330
80
100
AcDbEntity
  8
Layer 01
100
AcDbVertex
100
AcDb2dVertex
 10
-100.4220924091541
 20
1.828356308906848
 30
0.0
  0
VERTEX
  5
B0
330
80
100
AcDbEntity
  8
Layer 01
100
AcDbVertex
100
AcDb2dVertex
 10
-100.5700950336658
 20
1.461356205910022
 30
0.0
  0
VERTEX
  5
B1
330
80
100
AcDbEntity
  8
Layer 01
100
AcDbVertex
100
AcDb2dVertex
 10
-100.8000983905994
 20
1.123356385200793
 30
0.0
  0
VERTEX
  5
B2
330
80
100
AcDbEntity
  8
Layer 01
100
AcDbVertex
100
AcDb2dVertex
 10
-101.1020927143299
 20
0.8293562364275999
 30
0.0
  0
VERTEX
  5
B3
330
80
100
AcDbEntity
  8
Layer 01
100
AcDbVertex
100
AcDb2dVertex
 10
-101.4540977192127
 20
0.5963564347918577
 30
0.0
  0
VERTEX
  5
B4
330
80
100
AcDbEntity
  8
Layer 01
100
AcDbVertex
100
AcDb2dVertex
 10
-101.8360938739979
 20
0.4363565873797484
 30
0.0
  0
VERTEX
  5
B5
330
80
100
AcDbEntity
  8
Layer 01
100
AcDbVertex
100
AcDb2dVertex
 10
-102.2220954609119
 20
0.3463564347918577
 30
0.0
  0
VERTEX
  5
B6
330
80
100
AcDbEntity
  8
Layer 01
100
AcDbVertex
100
AcDb2dVertex
 10
-102.2870984711882
 20
0.0634336005278287
 30
0.0
  0
SEQEND
  5
B7
330
80
100
AcDbEntity
  8
Layer 01
  0
POLYLINE
  5
B8
330
1F
100
AcDbEntity
  8
Layer 01
100
AcDb2dPolyline
 66
     1
 10
0.0
 20
0.0
 30
0.0
 70
     1
  0
VERTEX
  5
B9
330
B8
100
AcDbEntity
  8
Layer 01
100
AcDbVertex
100
AcDb2dVertex
 10
-64.18809887888068
 20
0.3163562249835081
 30
0.0
  0
VERTEX
  5
BA
330
B8
100
AcDbEntity
  8
Layer 01
100
AcDbVertex
100
AcDb2dVertex
 10
-46.52209469797248
 20
23.34335712906676
 30
0.0
  0
VERTEX
  5
BB
330
B8
100
AcDbEntity
  8
Layer 01
100
AcDbVertex
100
AcDb2dVertex
 10
-47.84609601022834
 20
24.36035542008239
 30
0.0
  0
VERTEX
  5
BC
330
B8
100
AcDbEntity
  8
Layer 01
100
AcDbVertex
100
AcDb2dVertex
 10
-65.51409527780646
 20
1.333356423347766
 30
0.0
  0
SEQEND
  5
BD
330
B8
100
AcDbEntity
  8
Layer 01
  0
POLYLINE
  5
BE
330
1F
100
AcDbEntity
  8
Layer 01
100
AcDb2dPolyline
 66
     1
 10
0.0
 20
0.0
 30
0.0
 70
     1
  0
VERTEX
  5
BF
330
BE
100
AcDbEntity
  8
Layer 01
100
AcDbVertex
100
AcDb2dVertex
 10
-54.05209729196662
 20
1.34135632035094
 30
0.0
  0
VERTEX
  5
C0
330
BE
100
AcDbEntity
  8
Layer 01
100
AcDbVertex
100
AcDb2dVertex
 10
-36.38609692575568
 20
24.36835674759703
 30
0.0
  0
VERTEX
  5
C1
330
BE
100
AcDbEntity
  8
Layer 01
100
AcDbVertex
100
AcDb2dVertex
 10
-35.06209561349982
 20
23.35135654923278
 30
0.0
  0
VERTEX
  5
C2
330
BE
100
AcDbEntity
  8
Layer 01
100
AcDbVertex
100
AcDb2dVertex
 10
-52.72809597971076
 20
0.324356121986682
 30
0.0
  0
SEQEND
  5
C3
330
BE
100
AcDbEntity
  8
Layer 01
  0
POLYLINE
  5
C4
330
1F
100
AcDbEntity
  8
Layer 01
100
AcDb2dPolyline
 66
     1
 10
0.0
 20
0.0
 30
0.0
 70
     1
  0
VERTEX
  5
C5
330
C4
100
AcDbEntity
  8
Layer 01
100
AcDbVertex
100
AcDb2dVertex
 10
-42.57809445383185
 20
1.34135632035094
 30
0.0
  0
VERTEX
  5
C6
330
C4
100
AcDbEntity
  8
Layer 01
100
AcDbVertex
100
AcDb2dVertex
 10
-41.25409695627326
 20
0.324356121986682
 30
0.0
  0
VERTEX
  5
C7
330
C4
100
AcDbEntity
  8
Layer 01
100
AcDbVertex
100
AcDb2dVertex
 10
-23.5860957813465
 20
23.35135654923278
 30
0.0
  0
VERTEX
  5
C8
330
C4
100
AcDbEntity
  8
Layer 01
100
AcDbVertex
100
AcDb2dVertex
 10
-24.91009518625373
 20
24.36835674759703
 30
0.0
  0
SEQEND
  5
C9
330
C4
100
AcDbEntity
  8
Layer 01
  0
POLYLINE
  5
CA
330
1F
100
AcDbEntity
  8
Layer 01
100
AcDb2dPolyline
 66
     1
 10
0.0
 20
0.0
 30
0.0
 70
     1
  0
VERTEX
  5
CB
330
CA
100
AcDbEntity
  8
Layer 01
100
AcDbVertex
100
AcDb2dVertex
 10
-29.88009640695685
 20
0.3023562860186644
 30
0.0
  0
VERTEX
  5
CC
330
CA
100
AcDbEntity
  8
Layer 01
100
AcDbVertex
100
AcDb2dVertex
 10
-12.21409604074591
 20
23.32935719010192
 30
0.0
  0
VERTEX
  5
CD
330
CA
100
AcDbEntity
  8
Layer 01
100
AcDbVertex
100
AcDb2dVertex
 10
-13.53809544565314
 20
24.34635548111754
 30
0.0
  0
VERTEX
  5
CE
330
CA
100
AcDbEntity
  8
Layer 01
100
AcDbVertex
100
AcDb2dVertex
 10
-31.20409390451545
 20
1.321356339424426
 30
0.0
  0
SEQEND
  5
CF
330
CA
100
AcDbEntity
  8
Layer 01
  0
POLYLINE
  5
D0
330
1F
100
AcDbEntity
  8
Layer 01
100
AcDb2dPolyline
 66
     1
 10
0.0
 20
0.0
 30
0.0
 70
     1
  0
VERTEX
  5
D1
330
D0
100
AcDbEntity
  8
Layer 01
100
AcDbVertex
100
AcDb2dVertex
 10
59.18990328786737
 20
-25.06764407637758
 30
0.0
  0
VERTEX
  5
D2
330
D0
100
AcDbEntity
  8
Layer 01
100
AcDbVertex
100
AcDb2dVertex
 10
74.17590716359979
 20
-22.43464274886293
 30
0.0
  0
VERTEX
  5
D3
330
D0
100
AcDbEntity
  8
Layer 01
100
AcDbVertex
100
AcDb2dVertex
 10
73.67990496633416
 20
-20.21964450362367
 30
0.0
  0
VERTEX
  5
D4
330
D0
100
AcDbEntity
  8
Layer 01
100
AcDbVertex
100
AcDb2dVertex
 10
58.69590380666619
 20
-22.85264392378969
 30
0.0
  0
SEQEND
  5
D5
330
D0
100
AcDbEntity
  8
Layer 01
  0
POLYLINE
  5
D6
330
1F
100
AcDbEntity
  8
Layer 01
100
AcDb2dPolyline
 66
     1
 10
0.0
 20
0.0
 30
0.0
 70
     1
  0
VERTEX
  5
D7
330
D6
100
AcDbEntity
  8
Layer 01
100
AcDbVertex
100
AcDb2dVertex
 10
35.80790331838494
 20
0.3023562860186644
 30
0.0
  0
VERTEX
  5
D8
330
D6
100
AcDbEntity
  8
Layer 01
100
AcDbVertex
100
AcDb2dVertex
 10
18.14190390584832
 20
23.32935719010192
 30
0.0
  0
VERTEX
  5
D9
330
D6
100
AcDbEntity
  8
Layer 01
100
AcDbVertex
100
AcDb2dVertex
 10
19.46590426442987
 20
24.34635548111754
 30
0.0
  0
VERTEX
  5
DA
330
D6
100
AcDbEntity
  8
Layer 01
100
AcDbVertex
100
AcDb2dVertex
 10
37.13390353200799
 20
1.321356339424426
 30
0.0
  0
SEQEND
  5
DB
330
D6
100
AcDbEntity
  8
Layer 01
  0
POLYLINE
  5
DC
330
1F
100
AcDbEntity
  8
Layer 01
100
AcDb2dPolyline
 66
     1
 10
0.0
 20
0.0
 30
0.0
 70
     1
  0
VERTEX
  5
DD
330
DC
100
AcDbEntity
  8
Layer 01
100
AcDbVertex
100
AcDb2dVertex
 10
47.18390276906854
 20
0.322356266945178
 30
0.0
  0
VERTEX
  5
DE
330
DC
100
AcDbEntity
  8
Layer 01
100
AcDbVertex
100
AcDb2dVertex
 10
29.51590350149041
 20
23.34735683914977
 30
0.0
  0
VERTEX
  5
DF
330
DC
100
AcDbEntity
  8
Layer 01
100
AcDbVertex
100
AcDb2dVertex
 10
30.83990481374627
 20
24.36635593888121
 30
0.0
  0
VERTEX
  5
E0
330
DC
100
AcDbEntity
  8
Layer 01
100
AcDbVertex
100
AcDb2dVertex
 10
48.5079040813244
 20
1.339356465309436
 30
0.0
  0
SEQEND
  5
E1
330
DC
100
AcDbEntity
  8
Layer 01
  0
POLYLINE
  5
E2
330
1F
100
AcDbEntity
  8
Layer 01
100
AcDb2dPolyline
 66
     1
 10
0.0
 20
0.0
 30
0.0
 70
     1
  0
VERTEX
  5
E3
330
E2
100
AcDbEntity
  8
Layer 01
100
AcDbVertex
100
AcDb2dVertex
 10
58.65590289113885
 20
0.322356266945178
 30
0.0
  0
VERTEX
  5
E4
330
E2
100
AcDbEntity
  8
Layer 01
100
AcDbVertex
100
AcDb2dVertex
 10
59.9819031047619
 20
1.339356465309436
 30
0.0
  0
VERTEX
  5
E5
330
E2
100
AcDbEntity
  8
Layer 01
100
AcDbVertex
100
AcDb2dVertex
 10
42.31390383718377
 20
24.36635593888121
 30
0.0
  0
VERTEX
  5
E6
330
E2
100
AcDbEntity
  8
Layer 01
100
AcDbVertex
100
AcDb2dVertex
 10
40.98990252492791
 20
23.34735683914977
 30
0.0
  0
SEQEND
  5
E7
330
E2
100
AcDbEntity
  8
Layer 01
  0
POLYLINE
  5
E8
330
1F
100
AcDbEntity
  8
Layer 01
100
AcDb2dPolyline
 66
     1
 10
0.0
 20
0.0
 30
0.0
 70
     1
  0
VERTEX
  5
E9
330
E8
100
AcDbEntity
  8
Layer 01
100
AcDbVertex
100
AcDb2dVertex
 10
70.11590197561151
 20
0.3143563699420042
 30
0.0
  0
VERTEX
  5
EA
330
E8
100
AcDbEntity
  8
Layer 01
100
AcDbVertex
100
AcDb2dVertex
 10
52.44990542409784
 20
23.33935551163512
 30
0.0
  0
VERTEX
  5
EB
330
E8
100
AcDbEntity
  8
Layer 01
100
AcDbVertex
100
AcDb2dVertex
 10
53.77590563772088
 20
24.3583565187152
 30
0.0
  0
VERTEX
  5
EC
330
E8
100
AcDbEntity
  8
Layer 01
100
AcDbVertex
100
AcDb2dVertex
 10
71.43990710256463
 20
1.331356568306262
 30
0.0
  0
SEQEND
  5
ED
330
E8
100
AcDbEntity
  8
Layer 01
  0
POLYLINE
  5
EE
330
1F
100
AcDbEntity
  8
Layer 01
100
AcDb2dPolyline
 66
     1
 10
0.0
 20
0.0
 30
0.0
 70
     1
  0
VERTEX
  5
EF
330
EE
100
AcDbEntity
  8
Layer 01
100
AcDbVertex
100
AcDb2dVertex
 10
106.5379066753185
 20
7.849356455772693
 30
0.0
  0
VERTEX
  5
F0
330
EE
100
AcDbEntity
  8
Layer 01
100
AcDbVertex
100
AcDb2dVertex
 10
106.5619011211193
 20
7.084356350868518
 30
0.0
  0
VERTEX
  5
F1
330
EE
100
AcDbEntity
  8
Layer 01
100
AcDbVertex
100
AcDb2dVertex
 10
106.5479011821545
 20
5.562356350987727
 30
0.0
  0
VERTEX
  5
F2
330
EE
100
AcDbEntity
  8
Layer 01
100
AcDbVertex
100
AcDb2dVertex
 10
106.391902952174
 20
3.368356270759875
 30
0.0
  0
VERTEX
  5
F3
330
EE
100
AcDbEntity
  8
Layer 01
100
AcDbVertex
100
AcDb2dVertex
 10
106.3879051494396
 20
3.298356337517077
 30
0.0
  0
VERTEX
  5
F4
330
EE
100
AcDbEntity
  8
Layer 01
100
AcDbVertex
100
AcDb2dVertex
 10
106.3499031352795
 20
1.826356453865344
 30
0.0
  0
VERTEX
  5
F5
330
EE
100
AcDbEntity
  8
Layer 01
100
AcDbVertex
100
AcDb2dVertex
 10
106.4979057597912
 20
1.459356350868518
 30
0.0
  0
VERTEX
  5
F6
330
EE
100
AcDbEntity
  8
Layer 01
100
AcDbVertex
100
AcDb2dVertex
 10
106.729908018092
 20
1.121356530159289
 30
0.0
  0
VERTEX
  5
F7
330
EE
100
AcDbEntity
  8
Layer 01
100
AcDbVertex
100
AcDb2dVertex
 10
107.0279045390881
 20
0.827356381386096
 30
0.0
  0
VERTEX
  5
F8
330
EE
100
AcDbEntity
  8
Layer 01
100
AcDbVertex
100
AcDb2dVertex
 10
107.3839073467053
 20
0.5963564347918577
 30
0.0
  0
VERTEX
  5
F9
330
EE
100
AcDbEntity
  8
Layer 01
100
AcDbVertex
100
AcDb2dVertex
 10
107.7659035014904
 20
0.4363565873797484
 30
0.0
  0
VERTEX
  5
FA
330
EE
100
AcDbEntity
  8
Layer 01
100
AcDbVertex
100
AcDb2dVertex
 10
108.1519050884045
 20
0.3423562478716917
 30
0.0
  0
VERTEX
  5
FB
330
EE
100
AcDbEntity
  8
Layer 01
100
AcDbVertex
100
AcDb2dVertex
 10
108.6039009380139
 20
0.3143563699420042
 30
0.0
  0
VERTEX
  5
FC
330
EE
100
AcDbEntity
  8
Layer 01
100
AcDbVertex
100
AcDb2dVertex
 10
109.0619011211193
 20
0.3663564157183714
 30
0.0
  0
VERTEX
  5
FD
330
EE
100
AcDbEntity
  8
Layer 01
100
AcDbVertex
100
AcDb2dVertex
 10
109.4999046611584
 20
0.5023565721209593
 30
0.0
  0
VERTEX
  5
FE
330
EE
100
AcDbEntity
  8
Layer 01
100
AcDbVertex
100
AcDb2dVertex
 10
109.8899040508068
 20
0.7083564233477659
 30
0.0
  0
VERTEX
  5
FF
330
EE
100
AcDbEntity
  8
Layer 01
100
AcDbVertex
100
AcDb2dVertex
 10
110.2259025859631
 20
0.9793563317950316
 30
0.0
  0
VERTEX
  5
100
330
EE
100
AcDbEntity
  8
Layer 01
100
AcDbVertex
100
AcDb2dVertex
 10
110.4979057597912
 20
1.313356442421252
 30
0.0
  0
VERTEX
  5
101
330
EE
100
AcDbEntity
  8
Layer 01
100
AcDbVertex
100
AcDb2dVertex
 10
110.6879005718029
 20
1.688356442421252
 30
0.0
  0
VERTEX
  5
102
330
EE
100
AcDbEntity
  8
Layer 01
100
AcDbVertex
100
AcDb2dVertex
 10
110.7859077739514
 20
2.080356402366931
 30
0.0
  0
VERTEX
  5
103
330
EE
100
AcDbEntity
  8
Layer 01
100
AcDbVertex
100
AcDb2dVertex
 10
110.8879051494396
 20
2.913356347053821
 30
0.0
  0
VERTEX
  5
104
330
EE
100
AcDbEntity
  8
Layer 01
100
AcDbVertex
100
AcDb2dVertex
 10
111.0659065532482
 20
5.444356350272471
 30
0.0
  0
VERTEX
  5
105
330
EE
100
AcDbEntity
  8
Layer 01
100
AcDbVertex
100
AcDb2dVertex
 10
111.0659065532482
 20
5.881356341808612
 30
0.0
  0
VERTEX
  5
106
330
EE
100
AcDbEntity
  8
Layer 01
100
AcDbVertex
100
AcDb2dVertex
 10
111.0559044170178
 20
8.00235633370238
 30
0.0
  0
VERTEX
  5
107
330
EE
100
AcDbEntity
  8
Layer 01
100
AcDbVertex
100
AcDb2dVertex
 10
110.9379005718029
 20
9.71635632035094
 30
0.0
  0
VERTEX
  5
108
330
EE
100
AcDbEntity
  8
Layer 01
100
AcDbVertex
100
AcDb2dVertex
 10
110.6079063701428
 20
12.21535639283019
 30
0.0
  0
VERTEX
  5
109
330
EE
100
AcDbEntity
  8
Layer 01
100
AcDbVertex
100
AcDb2dVertex
 10
110.5999031352795
 20
12.2813563775714
 30
0.0
  0
VERTEX
  5
10A
330
EE
100
AcDbEntity
  8
Layer 01
100
AcDbVertex
100
AcDb2dVertex
 10
110.2599067973889
 20
13.9833565187152
 30
0.0
  0
VERTEX
  5
10B
330
EE
100
AcDbEntity
  8
Layer 01
100
AcDbVertex
100
AcDb2dVertex
 10
109.5939064311779
 20
16.51035599228697
 30
0.0
  0
VERTEX
  5
10C
330
EE
100
AcDbEntity
  8
Layer 01
100
AcDbVertex
100
AcDb2dVertex
 10
108.7339058208264
 20
18.98935608383971
 30
0.0
  0
VERTEX
  5
10D
330
EE
100
AcDbEntity
  8
Layer 01
100
AcDbVertex
100
AcDb2dVertex
 10
107.6879005718029
 20
21.40235619065123
 30
0.0
  0
VERTEX
  5
10E
330
EE
100
AcDbEntity
  8
Layer 01
100
AcDbVertex
100
AcDb2dVertex
 10
106.891902952174
 20
22.96435551163512
 30
0.0
  0
VERTEX
  5
10F
330
EE
100
AcDbEntity
  8
Layer 01
100
AcDbVertex
100
AcDb2dVertex
 10
106.0219078349865
 20
24.4883556794818
 30
0.0
  0
VERTEX
  5
110
330
EE
100
AcDbEntity
  8
Layer 01
100
AcDbVertex
100
AcDb2dVertex
 10
105.0819053935803
 20
25.97035603043395
 30
0.0
  0
VERTEX
  5
111
330
EE
100
AcDbEntity
  8
Layer 01
100
AcDbVertex
100
AcDb2dVertex
 10
103.5479011821545
 20
28.09935574051696
 30
0.0
  0
VERTEX
  5
112
330
EE
100
AcDbEntity
  8
Layer 01
100
AcDbVertex
100
AcDb2dVertex
 10
103.2539024638928
 20
28.40735630509215
 30
0.0
  0
VERTEX
  5
113
330
EE
100
AcDbEntity
  8
Layer 01
100
AcDbVertex
100
AcDb2dVertex
 10
102.8879051494396
 20
28.65935711380797
 30
0.0
  0
VERTEX
  5
114
330
EE
100
AcDbEntity
  8
Layer 01
100
AcDbVertex
100
AcDb2dVertex
 10
102.4739036845959
 20
28.84235577103453
 30
0.0
  0
VERTEX
  5
115
330
EE
100
AcDbEntity
  8
Layer 01
100
AcDbVertex
100
AcDb2dVertex
 10
102.0339012431896
 20
28.94435696122008
 30
0.0
  0
VERTEX
  5
116
330
EE
100
AcDbEntity
  8
Layer 01
100
AcDbVertex
100
AcDb2dVertex
 10
101.5839042949474
 20
28.96635632035094
 30
0.0
  0
VERTEX
  5
117
330
EE
100
AcDbEntity
  8
Layer 01
100
AcDbVertex
100
AcDb2dVertex
 10
101.1239052104748
 20
28.90635685440856
 30
0.0
  0
VERTEX
  5
118
330
EE
100
AcDbEntity
  8
Layer 01
100
AcDbVertex
100
AcDb2dVertex
 10
100.6899071025646
 20
28.76535610672789
 30
0.0
  0
VERTEX
  5
119
330
EE
100
AcDbEntity
  8
Layer 01
100
AcDbVertex
100
AcDb2dVertex
 10
100.3039055156506
 20
28.5513554048236
 30
0.0
  0
VERTEX
  5
11A
330
EE
100
AcDbEntity
  8
Layer 01
100
AcDbVertex
100
AcDb2dVertex
 10
100.0079078960217
 20
28.31135563370543
 30
0.0
  0
VERTEX
  5
11B
330
EE
100
AcDbEntity
  8
Layer 01
100
AcDbVertex
100
AcDb2dVertex
 10
99.75790789602166
 20
28.01135639664489
 30
0.0
  0
VERTEX
  5
11C
330
EE
100
AcDbEntity
  8
Layer 01
100
AcDbVertex
100
AcDb2dVertex
 10
99.56590655324823
 20
27.66035656449156
 30
0.0
  0
VERTEX
  5
11D
330
EE
100
AcDbEntity
  8
Layer 01
100
AcDbVertex
100
AcDb2dVertex
 10
99.44990160940057
 20
27.27635578629332
 30
0.0
  0
VERTEX
  5
11E
330
EE
100
AcDbEntity
  8
Layer 01
100
AcDbVertex
100
AcDb2dVertex
 10
99.42590716359979
 20
26.88135723587828
 30
0.0
  0
VERTEX
  5
11F
330
EE
100
AcDbEntity
  8
Layer 01
100
AcDbVertex
100
AcDb2dVertex
 10
99.48790362356073
 20
26.49535564896422
 30
0.0
  0
VERTEX
  5
120
330
EE
100
AcDbEntity
  8
Layer 01
100
AcDbVertex
100
AcDb2dVertex
 10
99.62390521047479
 20
26.14035610672789
 30
0.0
  0
VERTEX
  5
121
330
EE
100
AcDbEntity
  8
Layer 01
100
AcDbVertex
100
AcDb2dVertex
 10
101.193904905299
 20
23.92735676285582
 30
0.0
  0
VERTEX
  5
122
330
EE
100
AcDbEntity
  8
Layer 01
100
AcDbVertex
100
AcDb2dVertex
 10
102.4319038677014
 20
21.92535595414
 30
0.0
  0
VERTEX
  5
123
330
EE
100
AcDbEntity
  8
Layer 01
100
AcDbVertex
100
AcDb2dVertex
 10
103.1759071635998
 20
20.54335598465758
 30
0.0
  0
VERTEX
  5
124
330
EE
100
AcDbEntity
  8
Layer 01
100
AcDbVertex
100
AcDb2dVertex
 10
104.1679039287365
 20
18.40735630509215
 30
0.0
  0
VERTEX
  5
125
330
EE
100
AcDbEntity
  8
Layer 01
100
AcDbVertex
100
AcDb2dVertex
 10
104.459903745631
 20
17.68235592362242
 30
0.0
  0
VERTEX
  5
126
330
EE
100
AcDbEntity
  8
Layer 01
100
AcDbVertex
100
AcDb2dVertex
 10
105.229908018092
 20
15.46335606095153
 30
0.0
  0
VERTEX
  5
127
330
EE
100
AcDbEntity
  8
Layer 01
100
AcDbVertex
100
AcDb2dVertex
 10
105.8279075908459
 20
13.2023563813861
 30
0.0
  0
VERTEX
  5
128
330
EE
100
AcDbEntity
  8
Layer 01
100
AcDbVertex
100
AcDb2dVertex
 10
106.2519035625256
 20
10.91535620209532
 30
0.0
  0
VERTEX
  5
129
330
EE
100
AcDbEntity
  8
Layer 01
100
AcDbVertex
100
AcDb2dVertex
 10
106.4939079570568
 20
8.616356415718371
 30
0.0
  0
SEQEND
  5
12A
330
EE
100
AcDbEntity
  8
Layer 01
  0
ENDSEC
  0
SECTION
  2
OBJECTS
  0
DICTIONARY
  5
C
330
0
100
AcDbDictionary
281
     1
  3
ACAD_DETAILVIEWSTYLE
350
166
  3
ACAD_GROUP
350
D
  3
ACAD_LAYOUT
350
1A
  3
ACAD_MATERIAL
350
43
  3
ACAD_MLEADERSTYLE
350
6B
  3
ACAD_MLINESTYLE
350
17
  3
ACAD_PLOTSETTINGS
350
19
  3
ACAD_PLOTSTYLENAME
350
E
  3
ACAD_SCALELIST
350
47
  3
ACAD_SECTIONVIEWSTYLE
350
167
  3
ACAD_TABLESTYLE
350
69
  3
ACAD_VISUALSTYLE
350
2A
  3
ACDB_RECOMPOSE_DATA
350
163
  3
AcDbVariableDictionary
350
12B
  0
SUN
  5
6D
330
29
100
AcDbSun
 90
        1
290
     0
 63
     7
421
 16777215
 40
1.0
291
     1
 91
  2455826
 92
 54000000
292
     0
 70
     2
 71
   256
280
     1
  0
DICTIONARY
  5
166
102
{ACAD_REACTORS
330
C
102
}
330
C
100
AcDbDictionary
281
     1
  0
DICTIONARY
  5
D
102
{ACAD_REACTORS
330
C
102
}
330
C
100
AcDbDictionary
281
     1
  0
DICTIONARY
  5
1A
102
{ACAD_REACTORS
330
C
102
}
330
C
100
AcDbDictionary
281
     1
  3
Layout1
350
1E
  3
Layout2
350
26
  3
Model
350
22
  0
DICTIONARY
  5
43
102
{ACAD_REACTORS
330
C
102
}
330
C
100
AcDbDictionary
281
     1
  3
ByBlock
350
45
  3
ByLayer
350
44
  3
Global
350
46
  0
DICTIONARY
  5
6B
102
{ACAD_REACTORS
330
C
102
}
330
C
100
AcDbDictionary
281
     1
  3
Standard
350
6C
  0
DICTIONARY
  5
17
102
{ACAD_REACTORS
330
C
102
}
330
C
100
AcDbDictionary
281
     1
  3
Standard
350
18
  0
DICTIONARY
  5
19
102
{ACAD_REACTORS
330
C
102
}
330
C
100
AcDbDictionary
281
     1
  0
ACDBDICTIONARYWDFLT
  5
E
102
{ACAD_REACTORS
330
C
102
}
330
C
100
AcDbDictionary
281
     1
  3
Normal
350
F
100
AcDbDictionaryWithDefault
340
F
  0
DICTIONARY
  5
47
102
{ACAD_REACTORS
330
C
102
}
330
C
100
AcDbDictionary
281
     1
  3
A0
350
48
  3
A1
350
49
  3
A2
350
4A
  3
A3
350
4B
  3
A4
350
4C
  3
A5
350
4D
  3
A6
350
4E
  3
A7
350
4F
  3
A8
350
50
  3
A9
350
51
  3
B0
350
52
  3
B1
350
53
  3
B2
350
54
  3
B3
350
55
  3
B4
350
56
  3
B5
350
57
  3
B6
350
58
  3
B7
350
59
  3
B8
350
5A
  3
B9
350
5B
  3
C0
350
5C
  3
C1
350
5D
  3
C2
350
5E
  3
C3
350
5F
  3
C4
350
60
  3
C5
350
61
  3
C6
350
62
  3
C7
350
63
  3
C8
350
64
  3
C9
350
65
  3
D0
350
66
  3
D1
350
67
  3
D2
350
68
  0
DICTIONARY
  5
167
102
{ACAD_REACTORS
330
C
102
}
330
C
100
AcDbDictionary
281
     1
  0
DICTIONARY
  5
69
102
{ACAD_REACTORS
330
C
102
}
330
C
100
AcDbDictionary
281
     1
  3
Standard
350
6A
  0
DICTIONARY
  5
2A
102
{ACAD_REACTORS
330
C
102
}
330
C
100
AcDbDictionary
281
     1
  3
2dWireframe
350
2F
  3
Basic
350
32
  3
Brighten
350
36
  3
ColorChange
350
3A
  3
Conceptual
350
34
  3
Dim
350
35
  3
EdgeColorOff
350
3D
  3
Facepattern
350
39
  3
Flat
350
2B
  3
FlatWithEdges
350
2C
  3
Gouraud
350
2D
  3
GouraudWithEdges
350
2E
  3
Hidden
350
31
  3
JitterOff
350
3B
  3
Linepattern
350
38
  3
OverhangOff
350
3C
  3
Realistic
350
33
  3
Shaded
350
42
  3
Shaded with edges
350
41
  3
Shades of Gray
350
3E
  3
Sketchy
350
3F
  3
Thicken
350
37
  3
Wireframe
350
30
  3
X-Ray
350
40
  0
XRECORD
  5
163
102
{ACAD_REACTORS
330
C
102
}
330
C
100
AcDbXrecord
280
     1
 90
        1
330
6A
  0
DICTIONARY
  5
12B
102
{ACAD_REACTORS
330
C
102
}
330
C
100
AcDbDictionary
281
     1
  3
CANNOSCALE
350
12C
  3
CMLEADERSTYLE
350
165
  3
CTABLESTYLE
350
164
  3
XCLIPFRAME
350
12D
  0
LAYOUT
  5
1E
102
{ACAD_REACTORS
330
1A
102
}
330
1A
100
AcDbPlotSettings
  1

  2
none_device
  4

  6

 40
0.0
 41
0.0
 42
0.0
 43
0.0
 44
0.0
 45
0.0
 46
0.0
 47
0.0
 48
0.0
 49
0.0
140
0.0
141
0.0
142
1.0
143
1.0
 70
   688
 72
     0
 73
     0
 74
     5
  7

 75
    16
 76
     0
 77
     2
 78
   300
147
1.0
148
0.0
149
0.0
100
AcDbLayout
  1
Layout1
 70
     1
 71
     1
 10
0.0
 20
0.0
 11
12.0
 21
9.0
 12
0.0
 22
0.0
 32
0.0
 14
1.000000000000000E+20
 24
1.000000000000000E+20
 34
1.000000000000000E+20
 15
-1.000000000000000E+20
 25
-1.000000000000000E+20
 35
-1.000000000000000E+20
146
0.0
 13
0.0
 23
0.0
 33
0.0
 16
1.0
 26
0.0
 36
0.0
 17
0.0
 27
1.0
 37
0.0
 76
     0
330
1B
  0
LAYOUT
  5
26
102
{ACAD_REACTORS
330
1A
102
}
330
1A
100
AcDbPlotSettings
  1

  2
none_device
  4

  6

 40
0.0
 41
0.0
 42
0.0
 43
0.0
 44
0.0
 45
0.0
 46
0.0
 47
0.0
 48
0.0
 49
0.0
140
0.0
141
0.0
142
1.0
143
1.0
 70
   688
 72
     0
 73
     0
 74
     5
  7

 75
    16
 76
     0
 77
     2
 78
   300
147
1.0
148
0.0
149
0.0
100
AcDbLayout
  1
Layout2
 70
     1
 71
     2
 10
0.0
 20
0.0
 11
0.0
 21
0.0
 12
0.0
 22
0.0
 32
0.0
 14
0.0
 24
0.0
 34
0.0
 15
0.0
 25
0.0
 35
0.0
146
0.0
 13
0.0
 23
0.0
 33
0.0
 16
1.0
 26
0.0
 36
0.0
 17
0.0
 27
1.0
 37
0.0
 76
     0
330
23
  0
LAYOUT
  5
22
102
{ACAD_REACTORS
330
1A
102
}
330
1A
100
AcDbPlotSettings
  1

  2
none_device
  4
Letter_(8.50_x_11.00_Inches)
  6

 40
6.35
 41
6.35
 42
6.35000508
 43
6.35000508
 44
215.9
 45
279.4
 46
0.0
 47
0.0
 48
0.0
 49
0.0
140
0.0
141
0.0
142
1.0
143
1.0
 70
  1712
 72
     0
 73
     0
 74
     0
  7

 75
     0
 76
     0
 77
     2
 78
   300
147
1.0
148
0.0
149
0.0
100
AcDbLayout
  1
Model
 70
     1
 71
     0
 10
0.0
 20
0.0
 11
12.0
 21
9.0
 12
0.0
 22
0.0
 32
0.0
 14
1.000000000000000E+20
 24
1.000000000000000E+20
 34
1.000000000000000E+20
 15
-1.000000000000000E+20
 25
-1.000000000000000E+20
 35
-1.000000000000000E+20
146
0.0
 13
0.0
 23
0.0
 33
0.0
 16
1.0
 26
0.0
 36
0.0
 17
0.0
 27
1.0
 37
0.0
 76
     0
330
1F
331
29
  0
MATERIAL
  5
45
102
{ACAD_REACTORS
330
43
102
}
330
43
100
AcDbMaterial
  1
ByBlock
 72
     1
 94
      127
  0
MATERIAL
  5
44
102
{ACAD_REACTORS
330
43
102
}
330
43
100
AcDbMaterial
  1
ByLayer
 72
     1
 94
      127
  0
MATERIAL
  5
46
102
{ACAD_REACTORS
330
43
102
}
330
43
100
AcDbMaterial
  1
Global
 72
     1
 94
      127
  0
MLEADERSTYLE
  5
6C
102
{ACAD_REACTORS
330
6B
102
}
102
{ACAD_XDICTIONARY
360
161
102
}
330
6B
100
AcDbMLeaderStyle
170
     2
171
     1
172
     0
 90
        2
 40
0.0
 41
0.0
173
     1
 91
-1056964608
340
14
 92
       -2
290
     1
 42
0.09
291
     1
 43
0.36
  3
Standard
341
0
 44
0.18
300

342
11
174
     1
178
     6
175
     1
176
     0
 93
-1056964608
 45
0.18
292
     0
297
     0
 46
0.18
343
0
 94
-1056964608
 47
1.0
 49
1.0
140
1.0
293
     1
141
0.0
294
     1
177
     0
142
1.0
295
     0
296
     0
143
0.125
1001
ACAD_MLEADERVER
1070
     2
  0
MLINESTYLE
  5
18
102
{ACAD_REACTORS
330
17
102
}
330
17
100
AcDbMlineStyle
  2
Standard
 70
     0
  3

 62
   256
 51
90.0
 52
90.0
 71
     2
 49
0.5
 62
   256
  6
BYLAYER
 49
-0.5
 62
   256
  6
BYLAYER
  0
ACDBPLACEHOLDER
  5
F
102
{ACAD_REACTORS
330
E
102
}
330
E
  0
SCALE
  5
48
102
{ACAD_REACTORS
330
47
102
}
330
47
100
AcDbScale
 70
     0
300
1:1
140
1.0
141
1.0
290
     1
  0
SCALE
  5
49
102
{ACAD_REACTORS
330
47
102
}
330
47
100
AcDbScale
 70
     0
300
1:2
140
1.0
141
2.0
290
     0
  0
SCALE
  5
4A
102
{ACAD_REACTORS
330
47
102
}
330
47
100
AcDbScale
 70
     0
300
1:4
140
1.0
141
4.0
290
     0
  0
SCALE
  5
4B
102
{ACAD_REACTORS
330
47
102
}
330
47
100
AcDbScale
 70
     0
300
1:5
140
1.0
141
5.0
290
     0
  0
SCALE
  5
4C
102
{ACAD_REACTORS
330
47
102
}
330
47
100
AcDbScale
 70
     0
300
1:8
140
1.0
141
8.0
290
     0
  0
SCALE
  5
4D
102
{ACAD_REACTORS
330
47
102
}
330
47
100
AcDbScale
 70
     0
300
1:10
140
1.0
141
10.0
290
     0
  0
SCALE
  5
4E
102
{ACAD_REACTORS
330
47
102
}
330
47
100
AcDbScale
 70
     0
300
1:16
140
1.0
141
16.0
290
     0
  0
SCALE
  5
4F
102
{ACAD_REACTORS
330
47
102
}
330
47
100
AcDbScale
 70
     0
300
1:20
140
1.0
141
20.0
290
     0
  0
SCALE
  5
50
102
{ACAD_REACTORS
330
47
102
}
330
47
100
AcDbScale
 70
     0
300
1:30
140
1.0
141
30.0
290
     0
  0
SCALE
  5
51
102
{ACAD_REACTORS
330
47
102
}
330
47
100
AcDbScale
 70
     0
300
1:40
140
1.0
141
40.0
290
     0
  0
SCALE
  5
52
102
{ACAD_REACTORS
330
47
102
}
330
47
100
AcDbScale
 70
     0
300
1:50
140
1.0
141
50.0
290
     0
  0
SCALE
  5
53
102
{ACAD_REACTORS
330
47
102
}
330
47
100
AcDbScale
 70
     0
300
1:100
140
1.0
141
100.0
290
     0
  0
SCALE
  5
54
102
{ACAD_REACTORS
330
47
102
}
330
47
100
AcDbScale
 70
     0
300
2:1
140
2.0
141
1.0
290
     0
  0
SCALE
  5
55
102
{ACAD_REACTORS
330
47
102
}
330
47
100
AcDbScale
 70
     0
300
4:1
140
4.0
141
1.0
290
     0
  0
SCALE
  5
56
102
{ACAD_REACTORS
330
47
102
}
330
47
100
AcDbScale
 70
     0
300
8:1
140
8.0
141
1.0
290
     0
  0
SCALE
  5
57
102
{ACAD_REACTORS
330
47
102
}
330
47
100
AcDbScale
 70
     0
300
10:1
140
10.0
141
1.0
290
     0
  0
SCALE
  5
58
102
{ACAD_REACTORS
330
47
102
}
330
47
100
AcDbScale
 70
     0
300
100:1
140
100.0
141
1.0
290
     0
  0
SCALE
  5
59
102
{ACAD_REACTORS
330
47
102
}
330
47
100
AcDbScale
 70
     0
300
1/128" = 1'-0"
140
0.0078125
141
12.0
290
     0
  0
SCALE
  5
5A
102
{ACAD_REACTORS
330
47
102
}
330
47
100
AcDbScale
 70
     0
300
1/64" = 1'-0"
140
0.015625
141
12.0
290
     0
  0
SCALE
  5
5B
102
{ACAD_REACTORS
330
47
102
}
330
47
100
AcDbScale
 70
     0
300
1/32" = 1'-0"
140
0.03125
141
12.0
290
     0
  0
SCALE
  5
5C
102
{ACAD_REACTORS
330
47
102
}
330
47
100
AcDbScale
 70
     0
300
1/16" = 1'-0"
140
0.0625
141
12.0
290
     0
  0
SCALE
  5
5D
102
{ACAD_REACTORS
330
47
102
}
330
47
100
AcDbScale
 70
     0
300
3/32" = 1'-0"
140
0.09375
141
12.0
290
     0
  0
SCALE
  5
5E
102
{ACAD_REACTORS
330
47
102
}
330
47
100
AcDbScale
 70
     0
300
1/8" = 1'-0"
140
0.125
141
12.0
290
     0
  0
SCALE
  5
5F
102
{ACAD_REACTORS
330
47
102
}
330
47
100
AcDbScale
 70
     0
300
3/16" = 1'-0"
140
0.1875
141
12.0
290
     0
  0
SCALE
  5
60
102
{ACAD_REACTORS
330
47
102
}
330
47
100
AcDbScale
 70
     0
300
1/4" = 1'-0"
140
0.25
141
12.0
290
     0
  0
SCALE
  5
61
102
{ACAD_REACTORS
330
47
102
}
330
47
100
AcDbScale
 70
     0
300
3/8" = 1'-0"
140
0.375
141
12.0
290
     0
  0
SCALE
  5
62
102
{ACAD_REACTORS
330
47
102
}
330
47
100
AcDbScale
 70
     0
300
1/2" = 1'-0"
140
0.5
141
12.0
290
     0
  0
SCALE
  5
63
102
{ACAD_REACTORS
330
47
102
}
330
47
100
AcDbScale
 70
     0
300
3/4" = 1'-0"
140
0.75
141
12.0
290
     0
  0
SCALE
  5
64
102
{ACAD_REACTORS
330
47
102
}
330
47
100
AcDbScale
 70
     0
300
1" = 1'-0"
140
1.0
141
12.0
290
     0
  0
SCALE
  5
65
102
{ACAD_REACTORS
330
47
102
}
330
47
100
AcDbScale
 70
     0
300
1-1/2" = 1'-0"
140
1.5
141
12.0
290
     0
  0
SCALE
  5
66
102
{ACAD_REACTORS
330
47
102
}
330
47
100
AcDbScale
 70
     0
300
3" = 1'-0"
140
3.0
141
12.0
290
     0
  0
SCALE
  5
67
102
{ACAD_REACTORS
330
47
102
}
330
47
100
AcDbScale
 70
     0
300
6" = 1'-0"
140
6.0
141
12.0
290
     0
  0
SCALE
  5
68
102
{ACAD_REACTORS
330
47
102
}
330
47
100
AcDbScale
 70
     0
300
1'-0" = 1'-0"
140
12.0
141
12.0
290
     0
  0
TABLESTYLE
  5
6A
102
{ACAD_REACTORS
330
69
102
}
102
{ACAD_XDICTIONARY
360
15E
102
}
330
69
100
AcDbTableStyle
  3
Standard
 70
     0
 71
     0
 40
0.06
 41
0.06
280
     0
281
     0
  7
Standard
140
0.18
170
     2
 62
     0
 63
   257
283
     0
 90
        4
 91
        0
  1

274
    -2
284
     1
 64
     0
275
    -2
285
     1
 65
     0
276
    -2
286
     1
 66
     0
277
    -2
287
     1
 67
     0
278
    -2
288
     1
 68
     0
279
    -2
289
     1
 69
     0
  7
Standard
140
0.25
170
     5
 62
     0
 63
   257
283
     0
 90
        4
 91
        0
  1

274
    -2
284
     1
 64
     0
275
    -2
285
     1
 65
     0
276
    -2
286
     1
 66
     0
277
    -2
287
     1
 67
     0
278
    -2
288
     1
 68
     0
279
    -2
289
     1
 69
     0
  7
Standard
140
0.18
170
     5
 62
     0
 63
   257
283
     0
 90
        4
 91
        0
  1

274
    -2
284
     1
 64
     0
275
    -2
285
     1
 65
     0
276
    -2
286
     1
 66
     0
277
    -2
287
     1
 67
     0
278
    -2
288
     1
 68
     0
279
    -2
289
     1
 69
     0
  0
VISUALSTYLE
  5
2F
102
{ACAD_REACTORS
330
2A
102
}
102
{ACAD_XDICTIONARY
360
136
102
}
330
2A
100
AcDbVisualStyle
  2
2dWireframe
 70
     4
 71
     0
 72
     2
 73
     0
 90
        0
 40
0.6
 41
30.0
 62
     5
 63
     7
421
 16777215
 74
     1
 91
        4
 64
     7
 65
   257
 75
     1
175
     1
 42
1.0
 92
        0
 66
   257
 43
1.0
 76
     1
 77
     6
 78
     2
 67
     7
 79
     5
170
     0
171
     0
290
     0
174
     0
 93
        1
 44
0.0
173
     0
291
     0
 45
0.0
  0
VISUALSTYLE
  5
32
102
{ACAD_REACTORS
330
2A
102
}
102
{ACAD_XDICTIONARY
360
13C
102
}
330
2A
100
AcDbVisualStyle
  2
Basic
 70
     7
 71
     1
 72
     0
 73
     1
 90
        0
 40
0.6
 41
30.0
 62
     5
 63
     7
421
 16777215
 74
     0
 91
        4
 64
     7
 65
   257
 75
     1
175
     1
 42
1.0
 92
        8
 66
     7
 43
1.0
 76
     1
 77
     6
 78
     2
 67
     7
 79
     5
170
     0
171
     0
290
     0
174
     0
 93
        1
 44
0.0
173
     0
291
     1
 45
0.0
  0
VISUALSTYLE
  5
36
102
{ACAD_REACTORS
330
2A
102
}
102
{ACAD_XDICTIONARY
360
144
102
}
330
2A
100
AcDbVisualStyle
  2
Brighten
 70
    12
 71
     2
 72
     2
 73
     0
 90
        0
 40
0.6
 41
30.0
 62
     5
 63
     7
421
 16777215
 74
     1
 91
        4
 64
     7
 65
   257
 75
     1
175
     1
 42
1.0
 92
        8
 66
     7
 43
1.0
 76
     1
 77
     6
 78
     2
 67
     7
 79
     5
170
     0
171
     0
290
     0
174
     0
 93
        1
 44
50.0
173
     0
291
     1
 45
0.0
  0
VISUALSTYLE
  5
3A
102
{ACAD_REACTORS
330
2A
102
}
102
{ACAD_XDICTIONARY
360
14C
102
}
330
2A
100
AcDbVisualStyle
  2
ColorChange
 70
    16
 71
     2
 72
     2
 73
     3
 90
        0
 40
0.6
 41
30.0
 62
     5
 63
     8
421
  8421504
 74
     1
 91
        4
 64
     7
 65
   257
 75
     1
175
     1
 42
1.0
 92
        8
 66
     8
424
  8421504
 43
1.0
 76
     1
 77
     6
 78
     2
 67
     7
 79
     5
170
     0
171
     0
290
     0
174
     0
 93
        1
 44
0.0
173
     0
291
     1
 45
0.0
  0
VISUALSTYLE
  5
34
102
{ACAD_REACTORS
330
2A
102
}
102
{ACAD_XDICTIONARY
360
140
102
}
330
2A
100
AcDbVisualStyle
  2
Conceptual
 70
     9
 71
     3
 72
     2
 73
     0
 90
        0
 40
0.6
 41
30.0
 62
     5
 63
     7
421
 16777215
 74
     2
 91
        2
 64
     7
 65
   257
 75
     1
175
     1
 42
179.0
 92
        8
 66
     7
 43
1.0
 76
     1
 77
     6
 78
     2
 67
     7
 79
     3
170
     0
171
     0
290
     0
174
     0
 93
        1
 44
0.0
173
     0
291
     0
 45
0.0
  0
VISUALSTYLE
  5
35
102
{ACAD_REACTORS
330
2A
102
}
102
{ACAD_XDICTIONARY
360
142
102
}
330
2A
100
AcDbVisualStyle
  2
Dim
 70
    11
 71
     2
 72
     2
 73
     0
 90
        0
 40
0.6
 41
30.0
 62
     5
 63
     7
421
 16777215
 74
     1
 91
        4
 64
     7
 65
   257
 75
     1
175
     1
 42
1.0
 92
        8
 66
     7
 43
1.0
 76
     1
 77
     6
 78
     2
 67
     7
 79
     5
170
     0
171
     0
290
     0
174
     0
 93
        1
 44
-50.0
173
     0
291
     1
 45
0.0
  0
VISUALSTYLE
  5
3D
102
{ACAD_REACTORS
330
2A
102
}
102
{ACAD_XDICTIONARY
360
152
102
}
330
2A
100
AcDbVisualStyle
  2
EdgeColorOff
 70
    22
 71
     2
 72
     2
 73
     0
 90
        0
 40
0.6
 41
30.0
 62
     5
 63
     7
421
 16777215
 74
     1
 91
        4
 64
     7
 65
   257
 75
     1
175
     1
 42
1.0
 92
        8
 66
     7
 43
1.0
 76
     1
 77
     6
 78
     2
 67
     7
 79
     5
170
     0
171
     0
290
     0
174
     0
 93
        1
 44
0.0
173
     0
291
     1
 45
0.0
  0
VISUALSTYLE
  5
39
102
{ACAD_REACTORS
330
2A
102
}
102
{ACAD_XDICTIONARY
360
14A
102
}
330
2A
100
AcDbVisualStyle
  2
Facepattern
 70
    15
 71
     2
 72
     2
 73
     0
 90
        0
 40
0.6
 41
30.0
 62
     5
 63
     7
421
 16777215
 74
     1
 91
        4
 64
     7
 65
   257
 75
     1
175
     1
 42
1.0
 92
        8
 66
     7
 43
1.0
 76
     1
 77
     6
 78
     2
 67
     7
 79
     5
170
     0
171
     0
290
     0
174
     0
 93
        1
 44
0.0
173
     0
291
     1
 45
0.0
  0
VISUALSTYLE
  5
2B
102
{ACAD_REACTORS
330
2A
102
}
102
{ACAD_XDICTIONARY
360
12E
102
}
330
2A
100
AcDbVisualStyle
  2
Flat
 70
     0
 71
     2
 72
     1
 73
     1
 90
        2
 40
0.6
 41
30.0
 62
     5
 63
     7
421
 16777215
 74
     0
 91
        0
 64
     7
 65
   257
 75
     1
175
     1
 42
1.0
 92
        8
 66
     7
 43
1.0
 76
     1
 77
     6
 78
     2
 67
     7
 79
     5
170
     0
171
     0
290
     0
174
     0
 93
       13
 44
0.0
173
     0
291
     1
 45
0.0
  0
VISUALSTYLE
  5
2C
102
{ACAD_REACTORS
330
2A
102
}
102
{ACAD_XDICTIONARY
360
130
102
}
330
2A
100
AcDbVisualStyle
  2
FlatWithEdges
 70
     1
 71
     2
 72
     1
 73
     1
 90
        2
 40
0.6
 41
30.0
 62
     5
 63
     7
421
 16777215
 74
     1
 91
        0
 64
     7
 65
   257
 75
     1
175
     1
 42
1.0
 92
        0
 66
   257
 43
1.0
 76
     1
 77
     6
 78
     2
 67
     7
 79
     5
170
     0
171
     0
290
     0
174
     0
 93
       13
 44
0.0
173
     0
291
     1
 45
0.0
  0
VISUALSTYLE
  5
2D
102
{ACAD_REACTORS
330
2A
102
}
102
{ACAD_XDICTIONARY
360
132
102
}
330
2A
100
AcDbVisualStyle
  2
Gouraud
 70
     2
 71
     2
 72
     2
 73
     1
 90
        2
 40
0.6
 41
30.0
 62
     5
 63
     7
421
 16777215
 74
     0
 91
        0
 64
     7
 65
   257
 75
     1
175
     1
 42
1.0
 92
        0
 66
     7
 43
1.0
 76
     1
 77
     6
 78
     2
 67
     7
 79
     5
170
     0
171
     0
290
     0
174
     0
 93
       13
 44
0.0
173
     0
291
     1
 45
0.0
  0
VISUALSTYLE
  5
2E
102
{ACAD_REACTORS
330
2A
102
}
102
{ACAD_XDICTIONARY
360
134
102
}
330
2A
100
AcDbVisualStyle
  2
GouraudWithEdges
 70
     3
 71
     2
 72
     2
 73
     1
 90
        2
 40
0.6
 41
30.0
 62
     5
 63
     7
421
 16777215
 74
     1
 91
        0
 64
     7
 65
   257
 75
     1
175
     1
 42
1.0
 92
        0
 66
   257
 43
1.0
 76
     1
 77
     6
 78
     2
 67
     7
 79
     5
170
     0
171
     0
290
     0
174
     0
 93
       13
 44
0.0
173
     0
291
     1
 45
0.0
  0
VISUALSTYLE
  5
31
102
{ACAD_REACTORS
330
2A
102
}
102
{ACAD_XDICTIONARY
360
13A
102
}
330
2A
100
AcDbVisualStyle
  2
Hidden
 70
     6
 71
     1
 72
     2
 73
     2
 90
        0
 40
0.6
 41
30.0
 62
     5
 63
     7
421
 16777215
 74
     2
 91
        2
 64
     7
 65
   257
 75
     2
175
     1
 42
40.0
 92
        0
 66
   257
 43
1.0
 76
     1
 77
     6
 78
     2
 67
     7
 79
     3
170
     0
171
     0
290
     0
174
     0
 93
        1
 44
0.0
173
     0
291
     0
 45
0.0
  0
VISUALSTYLE
  5
3B
102
{ACAD_REACTORS
330
2A
102
}
102
{ACAD_XDICTIONARY
360
14E
102
}
330
2A
100
AcDbVisualStyle
  2
JitterOff
 70
    20
 71
     2
 72
     2
 73
     0
 90
        0
 40
0.6
 41
30.0
 62
     5
 63
     7
421
 16777215
 74
     1
 91
        4
 64
     7
 65
   257
 75
     1
175
     1
 42
1.0
 92
       10
 66
     7
 43
1.0
 76
     1
 77
     6
 78
     2
 67
     7
 79
     5
170
     0
171
     0
290
     0
174
     0
 93
        1
 44
0.0
173
     0
291
     1
 45
0.0
  0
VISUALSTYLE
  5
38
102
{ACAD_REACTORS
330
2A
102
}
102
{ACAD_XDICTIONARY
360
148
102
}
330
2A
100
AcDbVisualStyle
  2
Linepattern
 70
    14
 71
     2
 72
     2
 73
     0
 90
        0
 40
0.6
 41
30.0
 62
     5
 63
     7
421
 16777215
 74
     1
 91
        4
 64
     7
 65
   257
 75
     7
175
     7
 42
1.0
 92
        8
 66
     7
 43
1.0
 76
     1
 77
     6
 78
     2
 67
     7
 79
     5
170
     0
171
     0
290
     0
174
     0
 93
        1
 44
0.0
173
     0
291
     1
 45
0.0
  0
VISUALSTYLE
  5
3C
102
{ACAD_REACTORS
330
2A
102
}
102
{ACAD_XDICTIONARY
360
150
102
}
330
2A
100
AcDbVisualStyle
  2
OverhangOff
 70
    21
 71
     2
 72
     2
 73
     0
 90
        0
 40
0.6
 41
30.0
 62
     5
 63
     7
421
 16777215
 74
     1
 91
        4
 64
     7
 65
   257
 75
     1
175
     1
 42
1.0
 92
        9
 66
     7
 43
1.0
 76
     1
 77
     6
 78
     2
 67
     7
 79
     5
170
     0
171
     0
290
     0
174
     0
 93
        1
 44
0.0
173
     0
291
     1
 45
0.0
  0
VISUALSTYLE
  5
33
102
{ACAD_REACTORS
330
2A
102
}
102
{ACAD_XDICTIONARY
360
13E
102
}
330
2A
100
AcDbVisualStyle
  2
Realistic
 70
     8
 71
     2
 72
     3
 73
     0
 90
        2
 40
0.6
 41
30.0
 62
     5
 63
     7
421
 16777215
 74
     0
 91
        0
 64
     7
 65
   257
 75
     1
175
     1
 42
1.0
 92
        8
 66
   257
 43
1.0
 76
     1
 77
     6
 78
     2
 67
     7
 79
     3
170
     0
171
     0
290
     0
174
     0
 93
       13
 44
0.0
173
     0
291
     0
 45
0.0
  0
VISUALSTYLE
  5
42
102
{ACAD_REACTORS
330
2A
102
}
102
{ACAD_XDICTIONARY
360
15C
102
}
330
2A
100
AcDbVisualStyle
  2
Shaded
 70
    27
 71
     2
 72
     2
 73
     1
 90
        2
 40
0.6
 41
30.0
 62
     5
 63
     7
421
 16777215
 74
     0
 91
        4
 64
     7
 65
   257
 75
     1
175
     1
 42
1.0
 92
        8
 66
   257
 43
1.0
 76
     1
 77
     6
 78
     2
 67
     8
425
  7895160
 79
     3
170
     0
171
     0
290
     0
174
     0
 93
        5
 44
0.0
173
     0
291
     0
 45
0.0
  0
VISUALSTYLE
  5
41
102
{ACAD_REACTORS
330
2A
102
}
102
{ACAD_XDICTIONARY
360
15A
102
}
330
2A
100
AcDbVisualStyle
  2
Shaded with edges
 70
    26
 71
     2
 72
     2
 73
     1
 90
        2
 40
0.6
 41
30.0
 62
     5
 63
     7
421
 16777215
 74
     1
 91
       10
 64
     7
 65
   257
 75
     2
175
     1
 42
1.0
 92
        8
 66
   257
 43
1.0
 76
     1
 77
     6
 78
     2
 67
     7
 79
     3
170
     0
171
     0
290
     0
174
     0
 93
        5
 44
0.0
173
     0
291
     0
 45
0.0
  0
VISUALSTYLE
  5
3E
102
{ACAD_REACTORS
330
2A
102
}
102
{ACAD_XDICTIONARY
360
154
102
}
330
2A
100
AcDbVisualStyle
  2
Shades of Gray
 70
    23
 71
     2
 72
     2
 73
     3
 90
        0
 40
0.6
 41
30.0
 62
     5
 63
     7
421
 16777215
 74
     2
 91
        2
 64
     7
 65
     7
 75
     1
175
     1
 42
40.0
 92
        8
 66
     7
 43
1.0
 76
     1
 77
     6
 78
     2
 67
     7
 79
     3
170
     0
171
     0
290
     0
174
     0
 93
        1
 44
0.0
173
     0
291
     0
 45
0.0
  0
VISUALSTYLE
  5
3F
102
{ACAD_REACTORS
330
2A
102
}
102
{ACAD_XDICTIONARY
360
156
102
}
330
2A
100
AcDbVisualStyle
  2
Sketchy
 70
    24
 71
     1
 72
     2
 73
     2
 90
        0
 40
0.6
 41
30.0
 62
     5
 63
     7
421
 16777215
 74
     2
 91
        2
 64
     7
 65
     7
 75
     1
175
     1
 42
40.0
 92
       11
 66
     7
 43
1.0
 76
     1
 77
     6
 78
     2
 67
     7
 79
     6
170
     0
171
     0
290
     0
174
     0
 93
        1
 44
0.0
173
     0
291
     0
 45
0.0
  0
VISUALSTYLE
  5
37
102
{ACAD_REACTORS
330
2A
102
}
102
{ACAD_XDICTIONARY
360
146
102
}
330
2A
100
AcDbVisualStyle
  2
Thicken
 70
    13
 71
     2
 72
     2
 73
     0
 90
        0
 40
0.6
 41
30.0
 62
     5
 63
     7
421
 16777215
 74
     1
 91
        4
 64
     7
 65
   257
 75
     1
175
     1
 42
1.0
 92
       12
 66
     7
 43
1.0
 76
     1
 77
     6
 78
     2
 67
     7
 79
     5
170
     0
171
     0
290
     0
174
     0
 93
        1
 44
0.0
173
     0
291
     1
 45
0.0
  0
VISUALSTYLE
  5
30
102
{ACAD_REACTORS
330
2A
102
}
102
{ACAD_XDICTIONARY
360
138
102
}
330
2A
100
AcDbVisualStyle
  2
Wireframe
 70
     5
 71
     0
 72
     2
 73
     0
 90
        0
 40
0.6
 41
30.0
 62
     5
 63
     7
421
 16777215
 74
     1
 91
        4
 64
     7
 65
   257
 75
     1
175
     1
 42
1.0
 92
        0
 66
   257
 43
1.0
 76
     1
 77
     6
 78
     2
 67
     7
 79
     3
170
     0
171
     0
290
     0
174
     0
 93
        1
 44
0.0
173
     0
291
     0
 45
0.0
  0
VISUALSTYLE
  5
40
102
{ACAD_REACTORS
330
2A
102
}
102
{ACAD_XDICTIONARY
360
158
102
}
330
2A
100
AcDbVisualStyle
  2
X-Ray
 70
    25
 71
     2
 72
     2
 73
     1
 90
        1
 40
0.5
 41
30.0
 62
     5
 63
     7
421
 16777215
 74
     1
 91
        0
 64
     7
 65
   257
 75
     1
175
     1
 42
1.0
 92
        8
 66
     7
 43
1.0
 76
     1
 77
     6
 78
     2
 67
     7
 79
     3
170
     0
171
     0
290
     0
174
     0
 93
       13
 44
0.0
173
     0
291
     0
 45
0.0
  0
DICTIONARYVAR
  5
12C
102
{ACAD_REACTORS
330
12B
102
}
330
12B
100
DictionaryVariables
280
     0
  1
1:1
  0
DICTIONARYVAR
  5
165
102
{ACAD_REACTORS
330
12B
102
}
330
12B
100
DictionaryVariables
280
     0
  1
Standard
  0
DICTIONARYVAR
  5
164
102
{ACAD_REACTORS
330
12B
102
}
330
12B
100
DictionaryVariables
280
     0
  1
Standard
  0
DICTIONARYVAR
  5
12D
102
{ACAD_REACTORS
330
12B
102
}
330
12B
100
DictionaryVariables
280
     0
  1
2
  0
DICTIONARY
  5
161
330
6C
100
AcDbDictionary
280
     1
281
     1
  3
ACAD_XREC_ROUNDTRIP
360
162
  0
DICTIONARY
  5
15E
330
6A
100
AcDbDictionary
280
     1
281
     1
  3
ACAD_ROUNDTRIP_2008_TABLESTYLE_CELLSTYLEMAP
360
15F
  0
DICTIONARY
  5
136
330
2F
100
AcDbDictionary
280
     1
281
     1
  3
ACAD_XREC_ROUNDTRIP
360
137
  0
DICTIONARY
  5
13C
330
32
100
AcDbDictionary
280
     1
281
     1
  3
ACAD_XREC_ROUNDTRIP
360
13D
  0
DICTIONARY
  5
144
330
36
100
AcDbDictionary
280
     1
281
     1
  3
ACAD_XREC_ROUNDTRIP
360
145
  0
DICTIONARY
  5
14C
330
3A
100
AcDbDictionary
280
     1
281
     1
  3
ACAD_XREC_ROUNDTRIP
360
14D
  0
DICTIONARY
  5
140
330
34
100
AcDbDictionary
280
     1
281
     1
  3
ACAD_XREC_ROUNDTRIP
360
141
  0
DICTIONARY
  5
142
330
35
100
AcDbDictionary
280
     1
281
     1
  3
ACAD_XREC_ROUNDTRIP
360
143
  0
DICTIONARY
  5
152
330
3D
100
AcDbDictionary
280
     1
281
     1
  3
ACAD_XREC_ROUNDTRIP
360
153
  0
DICTIONARY
  5
14A
330
39
100
AcDbDictionary
280
     1
281
     1
  3
ACAD_XREC_ROUNDTRIP
360
14B
  0
DICTIONARY
  5
12E
330
2B
100
AcDbDictionary
280
     1
281
     1
  3
ACAD_XREC_ROUNDTRIP
360
12F
  0
DICTIONARY
  5
130
330
2C
100
AcDbDictionary
280
     1
281
     1
  3
ACAD_XREC_ROUNDTRIP
360
131
  0
DICTIONARY
  5
132
330
2D
100
AcDbDictionary
280
     1
281
     1
  3
ACAD_XREC_ROUNDTRIP
360
133
  0
DICTIONARY
  5
134
330
2E
100
AcDbDictionary
280
     1
281
     1
  3
ACAD_XREC_ROUNDTRIP
360
135
  0
DICTIONARY
  5
13A
330
31
100
AcDbDictionary
280
     1
281
     1
  3
ACAD_XREC_ROUNDTRIP
360
13B
  0
DICTIONARY
  5
14E
330
3B
100
AcDbDictionary
280
     1
281
     1
  3
ACAD_XREC_ROUNDTRIP
360
14F
  0
DICTIONARY
  5
148
330
38
100
AcDbDictionary
280
     1
281
     1
  3
ACAD_XREC_ROUNDTRIP
360
149
  0
DICTIONARY
  5
150
330
3C
100
AcDbDictionary
280
     1
281
     1
  3
ACAD_XREC_ROUNDTRIP
360
151
  0
DICTIONARY
  5
13E
330
33
100
AcDbDictionary
280
     1
281
     1
  3
ACAD_XREC_ROUNDTRIP
360
13F
  0
DICTIONARY
  5
15C
330
42
100
AcDbDictionary
280
     1
281
     1
  3
ACAD_XREC_ROUNDTRIP
360
15D
  0
DICTIONARY
  5
15A
330
41
100
AcDbDictionary
280
     1
281
     1
  3
ACAD_XREC_ROUNDTRIP
360
15B
  0
DICTIONARY
  5
154
330
3E
100
AcDbDictionary
280
     1
281
     1
  3
ACAD_XREC_ROUNDTRIP
360
155
  0
DICTIONARY
  5
156
330
3F
100
AcDbDictionary
280
     1
281
     1
  3
ACAD_XREC_ROUNDTRIP
360
157
  0
DICTIONARY
  5
146
330
37
100
AcDbDictionary
280
     1
281
     1
  3
ACAD_XREC_ROUNDTRIP
360
147
  0
DICTIONARY
  5
138
330
30
100
AcDbDictionary
280
     1
281
     1
  3
ACAD_XREC_ROUNDTRIP
360
139
  0
DICTIONARY
  5
158
330
40
100
AcDbDictionary
280
     1
281
     1
  3
ACAD_XREC_ROUNDTRIP
360
159
  0
XRECORD
  5
162
102
{ACAD_REACTORS
330
161
102
}
330
161
100
AcDbXrecord
280
     1
102
ACAD_ROUNDTRIP_2010_MLEADER_STYLE
  0
CELLSTYLEMAP
  5
15F
102
{ACAD_REACTORS
330
15E
102
}
330
15E
100
AcDbCellStyleMap
 90
        3
300
CELLSTYLE
  1
TABLEFORMAT_BEGIN
 90
        5
170
     1
 91
        0
 92
    32768
 62
   257
 93
        1
300
CONTENTFORMAT
  1
CONTENTFORMAT_BEGIN
 90
        0
 91
        0
 92
        4
 93
        0
300

 40
0.0
140
1.0
 94
        5
 62
     0
340
11
144
0.25
309
CONTENTFORMAT_END
171
     1
301
MARGIN
  1
CELLMARGIN_BEGIN
 40
0.06
 40
0.06
 40
0.06
 40
0.06
 40
0.06
 40
0.06
309
CELLMARGIN_END
 94
        6
 95
        1
302
GRIDFORMAT
  1
GRIDFORMAT_BEGIN
 90
        0
 91
        1
 62
     0
 92
       -2
340
14
 93
        0
 40
0.045
309
GRIDFORMAT_END
 95
        2
302
GRIDFORMAT
  1
GRIDFORMAT_BEGIN
 90
        0
 91
        1
 62
     0
 92
       -2
340
14
 93
        0
 40
0.045
309
GRIDFORMAT_END
 95
        4
302
GRIDFORMAT
  1
GRIDFORMAT_BEGIN
 90
        0
 91
        1
 62
     0
 92
       -2
340
14
 93
        0
 40
0.045
309
GRIDFORMAT_END
 95
        8
302
GRIDFORMAT
  1
GRIDFORMAT_BEGIN
 90
        0
 91
        1
 62
     0
 92
       -2
340
14
 93
        0
 40
0.045
309
GRIDFORMAT_END
 95
       16
302
GRIDFORMAT
  1
GRIDFORMAT_BEGIN
 90
        0
 91
        1
 62
     0
 92
       -2
340
14
 93
        0
 40
0.045
309
GRIDFORMAT_END
 95
       32
302
GRIDFORMAT
  1
GRIDFORMAT_BEGIN
 90
        0
 91
        1
 62
     0
 92
       -2
340
14
 93
        0
 40
0.045
309
GRIDFORMAT_END
309
TABLEFORMAT_END
  1
CELLSTYLE_BEGIN
 90
        1
 91
        1
300
_TITLE
309
CELLSTYLE_END
300
CELLSTYLE
  1
TABLEFORMAT_BEGIN
 90
        5
170
     1
 91
        0
 92
        0
 62
   257
 93
        1
300
CONTENTFORMAT
  1
CONTENTFORMAT_BEGIN
 90
        0
 91
        0
 92
        4
 93
        0
300

 40
0.0
140
1.0
 94
        5
 62
     0
340
11
144
0.18
309
CONTENTFORMAT_END
171
     1
301
MARGIN
  1
CELLMARGIN_BEGIN
 40
0.06
 40
0.06
 40
0.06
 40
0.06
 40
0.06
 40
0.06
309
CELLMARGIN_END
 94
        6
 95
        1
302
GRIDFORMAT
  1
GRIDFORMAT_BEGIN
 90
        0
 91
        1
 62
     0
 92
       -2
340
14
 93
        0
 40
0.045
309
GRIDFORMAT_END
 95
        2
302
GRIDFORMAT
  1
GRIDFORMAT_BEGIN
 90
        0
 91
        1
 62
     0
 92
       -2
340
14
 93
        0
 40
0.045
309
GRIDFORMAT_END
 95
        4
302
GRIDFORMAT
  1
GRIDFORMAT_BEGIN
 90
        0
 91
        1
 62
     0
 92
       -2
340
14
 93
        0
 40
0.045
309
GRIDFORMAT_END
 95
        8
302
GRIDFORMAT
  1
GRIDFORMAT_BEGIN
 90
        0
 91
        1
 62
     0
 92
       -2
340
14
 93
        0
 40
0.045
309
GRIDFORMAT_END
 95
       16
302
GRIDFORMAT
  1
GRIDFORMAT_BEGIN
 90
        0
 91
        1
 62
     0
 92
       -2
340
14
 93
        0
 40
0.045
309
GRIDFORMAT_END
 95
       32
302
GRIDFORMAT
  1
GRIDFORMAT_BEGIN
 90
        0
 91
        1
 62
     0
 92
       -2
340
14
 93
        0
 40
0.045
309
GRIDFORMAT_END
309
TABLEFORMAT_END
  1
CELLSTYLE_BEGIN
 90
        2
 91
        1
300
_HEADER
309
CELLSTYLE_END
300
CELLSTYLE
  1
TABLEFORMAT_BEGIN
 90
        5
170
     1
 91
        0
 92
        0
 62
   257
 93
        1
300
CONTENTFORMAT
  1
CONTENTFORMAT_BEGIN
 90
        0
 91
        0
 92
        4
 93
        0
300

 40
0.0
140
1.0
 94
        2
 62
     0
340
11
144
0.18
309
CONTENTFORMAT_END
171
     1
301
MARGIN
  1
CELLMARGIN_BEGIN
 40
0.06
 40
0.06
 40
0.06
 40
0.06
 40
0.06
 40
0.06
309
CELLMARGIN_END
 94
        6
 95
        1
302
GRIDFORMAT
  1
GRIDFORMAT_BEGIN
 90
        0
 91
        1
 62
     0
 92
       -2
340
14
 93
        0
 40
0.045
309
GRIDFORMAT_END
 95
        2
302
GRIDFORMAT
  1
GRIDFORMAT_BEGIN
 90
        0
 91
        1
 62
     0
 92
       -2
340
14
 93
        0
 40
0.045
309
GRIDFORMAT_END
 95
        4
302
GRIDFORMAT
  1
GRIDFORMAT_BEGIN
 90
        0
 91
        1
 62
     0
 92
       -2
340
14
 93
        0
 40
0.045
309
GRIDFORMAT_END
 95
        8
302
GRIDFORMAT
  1
GRIDFORMAT_BEGIN
 90
        0
 91
        1
 62
     0
 92
       -2
340
14
 93
        0
 40
0.045
309
GRIDFORMAT_END
 95
       16
302
GRIDFORMAT
  1
GRIDFORMAT_BEGIN
 90
        0
 91
        1
 62
     0
 92
       -2
340
14
 93
        0
 40
0.045
309
GRIDFORMAT_END
 95
       32
302
GRIDFORMAT
  1
GRIDFORMAT_BEGIN
 90
        0
 91
        1
 62
     0
 92
       -2
340
14
 93
        0
 40
0.045
309
GRIDFORMAT_END
309
TABLEFORMAT_END
  1
CELLSTYLE_BEGIN
 90
        3
 91
        2
300
_DATA
309
CELLSTYLE_END
  0
XRECORD
  5
137
102
{ACAD_REACTORS
330
136
102
}
330
136
100
AcDbXrecord
280
     1
102
RTVSPropertyOp0
 70
     1
102
RTVSPropertyOp1
 70
     1
102
RTVSPropertyOp2
 70
     1
102
RTVSPropertyOp3
 70
     1
102
RTVSPropertyOp4
 70
     1
102
RTVSPropertyOp5
 70
     1
102
RTVSPropertyOp6
 70
     1
102
RTVSPropertyOp7
 70
     1
102
RTVSPropertyOp8
 70
     1
102
RTVSPropertyOp9
 70
     1
102
RTVSPropertyOp10
 70
     1
102
RTVSPropertyOp11
 70
     1
102
RTVSPropertyOp12
 70
     1
102
RTVSPropertyOp13
 70
     1
102
RTVSPropertyOp14
 70
     1
102
RTVSPropertyOp15
 70
     1
102
RTVSPropertyOp16
 70
     1
102
RTVSPropertyOp17
 70
     1
102
RTVSPropertyOp18
 70
     1
102
RTVSPropertyOp19
 70
     1
102
RTVSPropertyOp20
 70
     1
102
RTVSPropertyOp21
 70
     1
102
RTVSPropertyOp22
 70
     1
102
RTVSPropertyOp23
 70
     1
102
RTVSPropertyOp24
 70
     1
102
RTVSPropertyOp25
 70
     1
102
RTVSPropertyOp26
 70
     1
102
RTVSPropertyOp27
 70
     1
102
RTVSPropertyOp28
 70
     1
102
RTVSPropertyOp29
 70
     1
102
RTVSPropertyOp30
 70
     1
102
RTVSPropertyOp31
 70
     1
102
RTVSPropertyOp32
 70
     1
102
RTVSPropertyOp33
 70
     1
102
RTVSPropertyOp34
 70
     1
102
RTVSPropertyOp35
 70
     1
102
RTVSPropertyOp36
 70
     1
102
RTVSPropertyOp37
 70
     1
102
RTVSPropertyOp38
 70
     1
102
RTVSPropertyOp39
 70
     1
102
RTVSPropertyOp40
 70
     1
102
RTVSPropertyOp41
 70
     1
102
RTVSPropertyOp42
 70
     1
102
RTVSPropertyOp43
 70
     1
102
RTVSPropertyOp44
 70
     1
102
RTVSPropertyOp45
 70
     1
102
RTVSPropertyOp46
 70
     1
102
RTVSPropertyOp47
 70
     1
102
RTVSPropertyOp48
 70
     1
102
RTVSPropertyOp49
 70
     1
102
RTVSPropertyOp50
 70
     1
102
RTVSPropertyOp51
 70
     0
102
RTVSPropertyOp52
 70
     0
102
RTVSPropertyOp53
 70
     1
102
RTVSPropertyOp54
 70
     1
102
RTVSPropertyOp55
 70
     1
102
RTVSPropertyOp56
 70
     1
102
RTVSPropertyOp57
 70
     1
102
RTVSPost2010Prop28
280
     1
102
RTVSPost2010PropOp28
 70
     1
102
RTVSPost2010Prop29
280
     1
102
RTVSPost2010PropOp29
 70
     1
102
RTVSPost2010Prop30
280
     0
102
RTVSPost2010PropOp30
 70
     1
102
RTVSPost2010Prop31
280
     0
102
RTVSPost2010PropOp31
 70
     1
102
RTVSPost2010Prop32
280
     0
102
RTVSPost2010PropOp32
 70
     1
102
RTVSPost2010Prop33
280
     0
102
RTVSPost2010PropOp33
 70
     1
102
RTVSPost2010Prop34
280
     0
102
RTVSPost2010PropOp34
 70
     1
102
RTVSPost2010Prop35
280
     0
102
RTVSPost2010PropOp35
 70
     1
102
RTVSPost2010Prop36
280
     0
102
RTVSPost2010PropOp36
 70
     1
102
RTVSPost2010Prop37
 90
       50
102
RTVSPost2010PropOp37
 70
     1
102
RTVSPost2010Prop38
140
0.0
102
RTVSPost2010PropOp38
 70
     1
102
RTVSPost2010Prop39
140
1.0
102
RTVSPost2010PropOp39
 70
     1
102
RTVSPost2010Prop40
 90
        0
102
RTVSPost2010PropOp40
 70
     1
102
RTVSPost2010Prop41ColorIndex
 90
       18
102
RTVSPost2010Prop41ColorRGB
 90
        0
102
RTVSPost2010PropOp41
 70
     1
102
RTVSPost2010Prop42
 90
       50
102
RTVSPost2010PropOp42
 70
     1
102
RTVSPost2010Prop43
 90
        3
102
RTVSPost2010PropOp43
 70
     1
102
RTVSPost2010Prop44ColorIndex
 90
        5
102
RTVSPost2010Prop44ColorRGB
 90
      255
102
RTVSPost2010PropOp44
 70
     1
102
RTVSPost2010Prop45
280
     0
102
RTVSPost2010PropOp45
 70
     1
102
RTVSPost2010Prop46
 90
       50
102
RTVSPost2010PropOp46
 70
     1
102
RTVSPost2010Prop47
 90
       50
102
RTVSPost2010PropOp47
 70
     1
102
RTVSPost2010Prop48
 90
       50
102
RTVSPost2010PropOp48
 70
     1
102
RTVSPost2010Prop49
280
     0
102
RTVSPost2010PropOp49
 70
     1
102
RTVSPost2010Prop50
 90
       50
102
RTVSPost2010PropOp50
 70
     1
102
RTVSPost2010Prop51ColorIndex
 90
      256
102
RTVSPost2010Prop51ColorRGB
 90
-16777216
102
RTVSPost2010PropOp51
 70
     0
102
RTVSPost2010Prop52
140
1.0
102
RTVSPost2010PropOp52
 70
     0
102
RTVSPost2010Prop53
 90
        2
102
RTVSPost2010PropOp53
 70
     1
102
RTVSPost2010Prop54
  1
strokes_ogs.tif
102
RTVSPost2010PropOp54
 70
     1
102
RTVSPost2010Prop55
280
     0
102
RTVSPost2010PropOp55
 70
     1
102
RTVSPost2010Prop56
140
1.0
102
RTVSPost2010PropOp56
 70
     1
102
RTVSPost2010Prop57
140
1.0
102
RTVSPost2010PropOp57
 70
     1
  0
XRECORD
  5
13D
102
{ACAD_REACTORS
330
13C
102
}
330
13C
100
AcDbXrecord
280
     1
102
RTVSPropertyOp0
 70
     1
102
RTVSPropertyOp1
 70
     1
102
RTVSPropertyOp2
 70
     1
102
RTVSPropertyOp3
 70
     1
102
RTVSPropertyOp4
 70
     1
102
RTVSPropertyOp5
 70
     1
102
RTVSPropertyOp6
 70
     1
102
RTVSPropertyOp7
 70
     1
102
RTVSPropertyOp8
 70
     1
102
RTVSPropertyOp9
 70
     1
102
RTVSPropertyOp10
 70
     1
102
RTVSPropertyOp11
 70
     1
102
RTVSPropertyOp12
 70
     1
102
RTVSPropertyOp13
 70
     1
102
RTVSPropertyOp14
 70
     1
102
RTVSPropertyOp15
 70
     1
102
RTVSPropertyOp16
 70
     1
102
RTVSPropertyOp17
 70
     1
102
RTVSPropertyOp18
 70
     1
102
RTVSPropertyOp19
 70
     1
102
RTVSPropertyOp20
 70
     1
102
RTVSPropertyOp21
 70
     1
102
RTVSPropertyOp22
 70
     1
102
RTVSPropertyOp23
 70
     1
102
RTVSPropertyOp24
 70
     1
102
RTVSPropertyOp25
 70
     1
102
RTVSPropertyOp26
 70
     1
102
RTVSPropertyOp27
 70
     1
102
RTVSPropertyOp28
 70
     1
102
RTVSPropertyOp29
 70
     1
102
RTVSPropertyOp30
 70
     1
102
RTVSPropertyOp31
 70
     1
102
RTVSPropertyOp32
 70
     1
102
RTVSPropertyOp33
 70
     1
102
RTVSPropertyOp34
 70
     1
102
RTVSPropertyOp35
 70
     1
102
RTVSPropertyOp36
 70
     1
102
RTVSPropertyOp37
 70
     1
102
RTVSPropertyOp38
 70
     1
102
RTVSPropertyOp39
 70
     1
102
RTVSPropertyOp40
 70
     1
102
RTVSPropertyOp41
 70
     1
102
RTVSPropertyOp42
 70
     1
102
RTVSPropertyOp43
 70
     1
102
RTVSPropertyOp44
 70
     1
102
RTVSPropertyOp45
 70
     1
102
RTVSPropertyOp46
 70
     1
102
RTVSPropertyOp47
 70
     1
102
RTVSPropertyOp48
 70
     1
102
RTVSPropertyOp49
 70
     1
102
RTVSPropertyOp50
 70
     1
102
RTVSPropertyOp51
 70
     0
102
RTVSPropertyOp52
 70
     0
102
RTVSPropertyOp53
 70
     1
102
RTVSPropertyOp54
 70
     1
102
RTVSPropertyOp55
 70
     1
102
RTVSPropertyOp56
 70
     1
102
RTVSPropertyOp57
 70
     1
102
RTVSPost2010Prop28
280
     0
102
RTVSPost2010PropOp28
 70
     1
102
RTVSPost2010Prop29
280
     1
102
RTVSPost2010PropOp29
 70
     1
102
RTVSPost2010Prop30
280
     1
102
RTVSPost2010PropOp30
 70
     1
102
RTVSPost2010Prop31
280
     0
102
RTVSPost2010PropOp31
 70
     1
102
RTVSPost2010Prop32
280
     0
102
RTVSPost2010PropOp32
 70
     1
102
RTVSPost2010Prop33
280
     0
102
RTVSPost2010PropOp33
 70
     1
102
RTVSPost2010Prop34
280
     0
102
RTVSPost2010PropOp34
 70
     1
102
RTVSPost2010Prop35
280
     0
102
RTVSPost2010PropOp35
 70
     1
102
RTVSPost2010Prop36
280
     0
102
RTVSPost2010PropOp36
 70
     1
102
RTVSPost2010Prop37
 90
       50
102
RTVSPost2010PropOp37
 70
     1
102
RTVSPost2010Prop38
140
0.0
102
RTVSPost2010PropOp38
 70
     1
102
RTVSPost2010Prop39
140
1.0
102
RTVSPost2010PropOp39
 70
     1
102
RTVSPost2010Prop40
 90
        0
102
RTVSPost2010PropOp40
 70
     1
102
RTVSPost2010Prop41ColorIndex
 90
       18
102
RTVSPost2010Prop41ColorRGB
 90
        0
102
RTVSPost2010PropOp41
 70
     1
102
RTVSPost2010Prop42
 90
       50
102
RTVSPost2010PropOp42
 70
     1
102
RTVSPost2010Prop43
 90
        3
102
RTVSPost2010PropOp43
 70
     1
102
RTVSPost2010Prop44ColorIndex
 90
        5
102
RTVSPost2010Prop44ColorRGB
 90
      255
102
RTVSPost2010PropOp44
 70
     1
102
RTVSPost2010Prop45
280
     0
102
RTVSPost2010PropOp45
 70
     1
102
RTVSPost2010Prop46
 90
       50
102
RTVSPost2010PropOp46
 70
     1
102
RTVSPost2010Prop47
 90
       50
102
RTVSPost2010PropOp47
 70
     1
102
RTVSPost2010Prop48
 90
       50
102
RTVSPost2010PropOp48
 70
     1
102
RTVSPost2010Prop49
280
     0
102
RTVSPost2010PropOp49
 70
     1
102
RTVSPost2010Prop50
 90
       50
102
RTVSPost2010PropOp50
 70
     1
102
RTVSPost2010Prop51ColorIndex
 90
      256
102
RTVSPost2010Prop51ColorRGB
 90
-16777216
102
RTVSPost2010PropOp51
 70
     0
102
RTVSPost2010Prop52
140
1.0
102
RTVSPost2010PropOp52
 70
     0
102
RTVSPost2010Prop53
 90
        2
102
RTVSPost2010PropOp53
 70
     1
102
RTVSPost2010Prop54
  1
strokes_ogs.tif
102
RTVSPost2010PropOp54
 70
     1
102
RTVSPost2010Prop55
280
     0
102
RTVSPost2010PropOp55
 70
     1
102
RTVSPost2010Prop56
140
1.0
102
RTVSPost2010PropOp56
 70
     1
102
RTVSPost2010Prop57
140
1.0
102
RTVSPost2010PropOp57
 70
     1
  0
XRECORD
  5
145
102
{ACAD_REACTORS
330
144
102
}
330
144
100
AcDbXrecord
280
     1
102
RTVSPropertyOp0
 70
     1
102
RTVSPropertyOp1
 70
     1
102
RTVSPropertyOp2
 70
     1
102
RTVSPropertyOp3
 70
     1
102
RTVSPropertyOp4
 70
     1
102
RTVSPropertyOp5
 70
     1
102
RTVSPropertyOp6
 70
     1
102
RTVSPropertyOp7
 70
     1
102
RTVSPropertyOp8
 70
     1
102
RTVSPropertyOp9
 70
     1
102
RTVSPropertyOp10
 70
     1
102
RTVSPropertyOp11
 70
     1
102
RTVSPropertyOp12
 70
     1
102
RTVSPropertyOp13
 70
     1
102
RTVSPropertyOp14
 70
     1
102
RTVSPropertyOp15
 70
     1
102
RTVSPropertyOp16
 70
     1
102
RTVSPropertyOp17
 70
     1
102
RTVSPropertyOp18
 70
     1
102
RTVSPropertyOp19
 70
     1
102
RTVSPropertyOp20
 70
     1
102
RTVSPropertyOp21
 70
     1
102
RTVSPropertyOp22
 70
     1
102
RTVSPropertyOp23
 70
     1
102
RTVSPropertyOp24
 70
     1
102
RTVSPropertyOp25
 70
     1
102
RTVSPropertyOp26
 70
     1
102
RTVSPropertyOp27
 70
     1
102
RTVSPropertyOp28
 70
     1
102
RTVSPropertyOp29
 70
     1
102
RTVSPropertyOp30
 70
     1
102
RTVSPropertyOp31
 70
     1
102
RTVSPropertyOp32
 70
     1
102
RTVSPropertyOp33
 70
     1
102
RTVSPropertyOp34
 70
     1
102
RTVSPropertyOp35
 70
     1
102
RTVSPropertyOp36
 70
     1
102
RTVSPropertyOp37
 70
     1
102
RTVSPropertyOp38
 70
     1
102
RTVSPropertyOp39
 70
     1
102
RTVSPropertyOp40
 70
     1
102
RTVSPropertyOp41
 70
     1
102
RTVSPropertyOp42
 70
     1
102
RTVSPropertyOp43
 70
     1
102
RTVSPropertyOp44
 70
     1
102
RTVSPropertyOp45
 70
     1
102
RTVSPropertyOp46
 70
     1
102
RTVSPropertyOp47
 70
     1
102
RTVSPropertyOp48
 70
     1
102
RTVSPropertyOp49
 70
     1
102
RTVSPropertyOp50
 70
     1
102
RTVSPropertyOp51
 70
     0
102
RTVSPropertyOp52
 70
     0
102
RTVSPropertyOp53
 70
     1
102
RTVSPropertyOp54
 70
     1
102
RTVSPropertyOp55
 70
     1
102
RTVSPropertyOp56
 70
     1
102
RTVSPropertyOp57
 70
     1
102
RTVSPost2010Prop28
280
     0
102
RTVSPost2010PropOp28
 70
     1
102
RTVSPost2010Prop29
280
     1
102
RTVSPost2010PropOp29
 70
     1
102
RTVSPost2010Prop30
280
     1
102
RTVSPost2010PropOp30
 70
     1
102
RTVSPost2010Prop31
280
     0
102
RTVSPost2010PropOp31
 70
     1
102
RTVSPost2010Prop32
280
     0
102
RTVSPost2010PropOp32
 70
     1
102
RTVSPost2010Prop33
280
     0
102
RTVSPost2010PropOp33
 70
     1
102
RTVSPost2010Prop34
280
     0
102
RTVSPost2010PropOp34
 70
     1
102
RTVSPost2010Prop35
280
     0
102
RTVSPost2010PropOp35
 70
     1
102
RTVSPost2010Prop36
280
     0
102
RTVSPost2010PropOp36
 70
     1
102
RTVSPost2010Prop37
 90
       50
102
RTVSPost2010PropOp37
 70
     1
102
RTVSPost2010Prop38
140
0.0
102
RTVSPost2010PropOp38
 70
     1
102
RTVSPost2010Prop39
140
1.0
102
RTVSPost2010PropOp39
 70
     1
102
RTVSPost2010Prop40
 90
        0
102
RTVSPost2010PropOp40
 70
     1
102
RTVSPost2010Prop41ColorIndex
 90
       18
102
RTVSPost2010Prop41ColorRGB
 90
        0
102
RTVSPost2010PropOp41
 70
     1
102
RTVSPost2010Prop42
 90
       50
102
RTVSPost2010PropOp42
 70
     1
102
RTVSPost2010Prop43
 90
        3
102
RTVSPost2010PropOp43
 70
     1
102
RTVSPost2010Prop44ColorIndex
 90
        5
102
RTVSPost2010Prop44ColorRGB
 90
      255
102
RTVSPost2010PropOp44
 70
     1
102
RTVSPost2010Prop45
280
     0
102
RTVSPost2010PropOp45
 70
     1
102
RTVSPost2010Prop46
 90
       50
102
RTVSPost2010PropOp46
 70
     1
102
RTVSPost2010Prop47
 90
       50
102
RTVSPost2010PropOp47
 70
     1
102
RTVSPost2010Prop48
 90
       50
102
RTVSPost2010PropOp48
 70
     1
102
RTVSPost2010Prop49
280
     0
102
RTVSPost2010PropOp49
 70
     1
102
RTVSPost2010Prop50
 90
       50
102
RTVSPost2010PropOp50
 70
     1
102
RTVSPost2010Prop51ColorIndex
 90
      256
102
RTVSPost2010Prop51ColorRGB
 90
-16777216
102
RTVSPost2010PropOp51
 70
     0
102
RTVSPost2010Prop52
140
1.0
102
RTVSPost2010PropOp52
 70
     0
102
RTVSPost2010Prop53
 90
        2
102
RTVSPost2010PropOp53
 70
     1
102
RTVSPost2010Prop54
  1
strokes_ogs.tif
102
RTVSPost2010PropOp54
 70
     1
102
RTVSPost2010Prop55
280
     0
102
RTVSPost2010PropOp55
 70
     1
102
RTVSPost2010Prop56
140
1.0
102
RTVSPost2010PropOp56
 70
     1
102
RTVSPost2010Prop57
140
1.0
102
RTVSPost2010PropOp57
 70
     1
  0
XRECORD
  5
14D
102
{ACAD_REACTORS
330
14C
102
}
330
14C
100
AcDbXrecord
280
     1
102
RTVSPropertyOp0
 70
     1
102
RTVSPropertyOp1
 70
     1
102
RTVSPropertyOp2
 70
     1
102
RTVSPropertyOp3
 70
     1
102
RTVSPropertyOp4
 70
     1
102
RTVSPropertyOp5
 70
     1
102
RTVSPropertyOp6
 70
     1
102
RTVSPropertyOp7
 70
     1
102
RTVSPropertyOp8
 70
     1
102
RTVSPropertyOp9
 70
     1
102
RTVSPropertyOp10
 70
     1
102
RTVSPropertyOp11
 70
     1
102
RTVSPropertyOp12
 70
     1
102
RTVSPropertyOp13
 70
     1
102
RTVSPropertyOp14
 70
     1
102
RTVSPropertyOp15
 70
     1
102
RTVSPropertyOp16
 70
     1
102
RTVSPropertyOp17
 70
     1
102
RTVSPropertyOp18
 70
     1
102
RTVSPropertyOp19
 70
     1
102
RTVSPropertyOp20
 70
     1
102
RTVSPropertyOp21
 70
     1
102
RTVSPropertyOp22
 70
     1
102
RTVSPropertyOp23
 70
     1
102
RTVSPropertyOp24
 70
     1
102
RTVSPropertyOp25
 70
     1
102
RTVSPropertyOp26
 70
     1
102
RTVSPropertyOp27
 70
     1
102
RTVSPropertyOp28
 70
     1
102
RTVSPropertyOp29
 70
     1
102
RTVSPropertyOp30
 70
     1
102
RTVSPropertyOp31
 70
     1
102
RTVSPropertyOp32
 70
     1
102
RTVSPropertyOp33
 70
     1
102
RTVSPropertyOp34
 70
     1
102
RTVSPropertyOp35
 70
     1
102
RTVSPropertyOp36
 70
     1
102
RTVSPropertyOp37
 70
     1
102
RTVSPropertyOp38
 70
     1
102
RTVSPropertyOp39
 70
     1
102
RTVSPropertyOp40
 70
     1
102
RTVSPropertyOp41
 70
     1
102
RTVSPropertyOp42
 70
     1
102
RTVSPropertyOp43
 70
     1
102
RTVSPropertyOp44
 70
     1
102
RTVSPropertyOp45
 70
     1
102
RTVSPropertyOp46
 70
     1
102
RTVSPropertyOp47
 70
     1
102
RTVSPropertyOp48
 70
     1
102
RTVSPropertyOp49
 70
     1
102
RTVSPropertyOp50
 70
     1
102
RTVSPropertyOp51
 70
     0
102
RTVSPropertyOp52
 70
     0
102
RTVSPropertyOp53
 70
     1
102
RTVSPropertyOp54
 70
     1
102
RTVSPropertyOp55
 70
     1
102
RTVSPropertyOp56
 70
     1
102
RTVSPropertyOp57
 70
     1
102
RTVSPost2010Prop28
280
     0
102
RTVSPost2010PropOp28
 70
     1
102
RTVSPost2010Prop29
280
     1
102
RTVSPost2010PropOp29
 70
     1
102
RTVSPost2010Prop30
280
     1
102
RTVSPost2010PropOp30
 70
     1
102
RTVSPost2010Prop31
280
     0
102
RTVSPost2010PropOp31
 70
     1
102
RTVSPost2010Prop32
280
     0
102
RTVSPost2010PropOp32
 70
     1
102
RTVSPost2010Prop33
280
     0
102
RTVSPost2010PropOp33
 70
     1
102
RTVSPost2010Prop34
280
     0
102
RTVSPost2010PropOp34
 70
     1
102
RTVSPost2010Prop35
280
     0
102
RTVSPost2010PropOp35
 70
     1
102
RTVSPost2010Prop36
280
     0
102
RTVSPost2010PropOp36
 70
     1
102
RTVSPost2010Prop37
 90
       50
102
RTVSPost2010PropOp37
 70
     1
102
RTVSPost2010Prop38
140
0.0
102
RTVSPost2010PropOp38
 70
     1
102
RTVSPost2010Prop39
140
1.0
102
RTVSPost2010PropOp39
 70
     1
102
RTVSPost2010Prop40
 90
        0
102
RTVSPost2010PropOp40
 70
     1
102
RTVSPost2010Prop41ColorIndex
 90
       18
102
RTVSPost2010Prop41ColorRGB
 90
        0
102
RTVSPost2010PropOp41
 70
     1
102
RTVSPost2010Prop42
 90
       50
102
RTVSPost2010PropOp42
 70
     1
102
RTVSPost2010Prop43
 90
        3
102
RTVSPost2010PropOp43
 70
     1
102
RTVSPost2010Prop44ColorIndex
 90
        5
102
RTVSPost2010Prop44ColorRGB
 90
      255
102
RTVSPost2010PropOp44
 70
     1
102
RTVSPost2010Prop45
280
     0
102
RTVSPost2010PropOp45
 70
     1
102
RTVSPost2010Prop46
 90
       50
102
RTVSPost2010PropOp46
 70
     1
102
RTVSPost2010Prop47
 90
       50
102
RTVSPost2010PropOp47
 70
     1
102
RTVSPost2010Prop48
 90
       50
102
RTVSPost2010PropOp48
 70
     1
102
RTVSPost2010Prop49
280
     0
102
RTVSPost2010PropOp49
 70
     1
102
RTVSPost2010Prop50
 90
       50
102
RTVSPost2010PropOp50
 70
     1
102
RTVSPost2010Prop51ColorIndex
 90
      256
102
RTVSPost2010Prop51ColorRGB
 90
-16777216
102
RTVSPost2010PropOp51
 70
     0
102
RTVSPost2010Prop52
140
1.0
102
RTVSPost2010PropOp52
 70
     0
102
RTVSPost2010Prop53
 90
        2
102
RTVSPost2010PropOp53
 70
     1
102
RTVSPost2010Prop54
  1
strokes_ogs.tif
102
RTVSPost2010PropOp54
 70
     1
102
RTVSPost2010Prop55
280
     0
102
RTVSPost2010PropOp55
 70
     1
102
RTVSPost2010Prop56
140
1.0
102
RTVSPost2010PropOp56
 70
     1
102
RTVSPost2010Prop57
140
1.0
102
RTVSPost2010PropOp57
 70
     1
  0
XRECORD
  5
141
102
{ACAD_REACTORS
330
140
102
}
330
140
100
AcDbXrecord
280
     1
102
RTVSPropertyOp0
 70
     1
102
RTVSPropertyOp1
 70
     1
102
RTVSPropertyOp2
 70
     1
102
RTVSPropertyOp3
 70
     1
102
RTVSPropertyOp4
 70
     1
102
RTVSPropertyOp5
 70
     1
102
RTVSPropertyOp6
 70
     1
102
RTVSPropertyOp7
 70
     1
102
RTVSPropertyOp8
 70
     1
102
RTVSPropertyOp9
 70
     1
102
RTVSPropertyOp10
 70
     1
102
RTVSPropertyOp11
 70
     1
102
RTVSPropertyOp12
 70
     1
102
RTVSPropertyOp13
 70
     1
102
RTVSPropertyOp14
 70
     1
102
RTVSPropertyOp15
 70
     1
102
RTVSPropertyOp16
 70
     1
102
RTVSPropertyOp17
 70
     1
102
RTVSPropertyOp18
 70
     1
102
RTVSPropertyOp19
 70
     1
102
RTVSPropertyOp20
 70
     1
102
RTVSPropertyOp21
 70
     1
102
RTVSPropertyOp22
 70
     1
102
RTVSPropertyOp23
 70
     1
102
RTVSPropertyOp24
 70
     1
102
RTVSPropertyOp25
 70
     1
102
RTVSPropertyOp26
 70
     1
102
RTVSPropertyOp27
 70
     1
102
RTVSPropertyOp28
 70
     1
102
RTVSPropertyOp29
 70
     1
102
RTVSPropertyOp30
 70
     1
102
RTVSPropertyOp31
 70
     1
102
RTVSPropertyOp32
 70
     1
102
RTVSPropertyOp33
 70
     1
102
RTVSPropertyOp34
 70
     1
102
RTVSPropertyOp35
 70
     1
102
RTVSPropertyOp36
 70
     1
102
RTVSPropertyOp37
 70
     1
102
RTVSPropertyOp38
 70
     1
102
RTVSPropertyOp39
 70
     1
102
RTVSPropertyOp40
 70
     1
102
RTVSPropertyOp41
 70
     1
102
RTVSPropertyOp42
 70
     1
102
RTVSPropertyOp43
 70
     1
102
RTVSPropertyOp44
 70
     1
102
RTVSPropertyOp45
 70
     1
102
RTVSPropertyOp46
 70
     1
102
RTVSPropertyOp47
 70
     1
102
RTVSPropertyOp48
 70
     1
102
RTVSPropertyOp49
 70
     1
102
RTVSPropertyOp50
 70
     1
102
RTVSPropertyOp51
 70
     0
102
RTVSPropertyOp52
 70
     0
102
RTVSPropertyOp53
 70
     1
102
RTVSPropertyOp54
 70
     1
102
RTVSPropertyOp55
 70
     1
102
RTVSPropertyOp56
 70
     1
102
RTVSPropertyOp57
 70
     1
102
RTVSPost2010Prop28
280
     0
102
RTVSPost2010PropOp28
 70
     1
102
RTVSPost2010Prop29
280
     1
102
RTVSPost2010PropOp29
 70
     1
102
RTVSPost2010Prop30
280
     1
102
RTVSPost2010PropOp30
 70
     1
102
RTVSPost2010Prop31
280
     0
102
RTVSPost2010PropOp31
 70
     1
102
RTVSPost2010Prop32
280
     0
102
RTVSPost2010PropOp32
 70
     1
102
RTVSPost2010Prop33
280
     0
102
RTVSPost2010PropOp33
 70
     1
102
RTVSPost2010Prop34
280
     0
102
RTVSPost2010PropOp34
 70
     1
102
RTVSPost2010Prop35
280
     0
102
RTVSPost2010PropOp35
 70
     1
102
RTVSPost2010Prop36
280
     0
102
RTVSPost2010PropOp36
 70
     1
102
RTVSPost2010Prop37
 90
       50
102
RTVSPost2010PropOp37
 70
     1
102
RTVSPost2010Prop38
140
0.0
102
RTVSPost2010PropOp38
 70
     1
102
RTVSPost2010Prop39
140
1.0
102
RTVSPost2010PropOp39
 70
     1
102
RTVSPost2010Prop40
 90
        0
102
RTVSPost2010PropOp40
 70
     1
102
RTVSPost2010Prop41ColorIndex
 90
       18
102
RTVSPost2010Prop41ColorRGB
 90
        0
102
RTVSPost2010PropOp41
 70
     1
102
RTVSPost2010Prop42
 90
       50
102
RTVSPost2010PropOp42
 70
     1
102
RTVSPost2010Prop43
 90
        3
102
RTVSPost2010PropOp43
 70
     1
102
RTVSPost2010Prop44ColorIndex
 90
        5
102
RTVSPost2010Prop44ColorRGB
 90
      255
102
RTVSPost2010PropOp44
 70
     1
102
RTVSPost2010Prop45
280
     0
102
RTVSPost2010PropOp45
 70
     1
102
RTVSPost2010Prop46
 90
       50
102
RTVSPost2010PropOp46
 70
     1
102
RTVSPost2010Prop47
 90
       50
102
RTVSPost2010PropOp47
 70
     1
102
RTVSPost2010Prop48
 90
       50
102
RTVSPost2010PropOp48
 70
     1
102
RTVSPost2010Prop49
280
     0
102
RTVSPost2010PropOp49
 70
     1
102
RTVSPost2010Prop50
 90
       50
102
RTVSPost2010PropOp50
 70
     1
102
RTVSPost2010Prop51ColorIndex
 90
      256
102
RTVSPost2010Prop51ColorRGB
 90
-16777216
102
RTVSPost2010PropOp51
 70
     0
102
RTVSPost2010Prop52
140
1.0
102
RTVSPost2010PropOp52
 70
     0
102
RTVSPost2010Prop53
 90
        2
102
RTVSPost2010PropOp53
 70
     1
102
RTVSPost2010Prop54
  1
strokes_ogs.tif
102
RTVSPost2010PropOp54
 70
     1
102
RTVSPost2010Prop55
280
     0
102
RTVSPost2010PropOp55
 70
     1
102
RTVSPost2010Prop56
140
1.0
102
RTVSPost2010PropOp56
 70
     1
102
RTVSPost2010Prop57
140
1.0
102
RTVSPost2010PropOp57
 70
     1
  0
XRECORD
  5
143
102
{ACAD_REACTORS
330
142
102
}
330
142
100
AcDbXrecord
280
     1
102
RTVSPropertyOp0
 70
     1
102
RTVSPropertyOp1
 70
     1
102
RTVSPropertyOp2
 70
     1
102
RTVSPropertyOp3
 70
     1
102
RTVSPropertyOp4
 70
     1
102
RTVSPropertyOp5
 70
     1
102
RTVSPropertyOp6
 70
     1
102
RTVSPropertyOp7
 70
     1
102
RTVSPropertyOp8
 70
     1
102
RTVSPropertyOp9
 70
     1
102
RTVSPropertyOp10
 70
     1
102
RTVSPropertyOp11
 70
     1
102
RTVSPropertyOp12
 70
     1
102
RTVSPropertyOp13
 70
     1
102
RTVSPropertyOp14
 70
     1
102
RTVSPropertyOp15
 70
     1
102
RTVSPropertyOp16
 70
     1
102
RTVSPropertyOp17
 70
     1
102
RTVSPropertyOp18
 70
     1
102
RTVSPropertyOp19
 70
     1
102
RTVSPropertyOp20
 70
     1
102
RTVSPropertyOp21
 70
     1
102
RTVSPropertyOp22
 70
     1
102
RTVSPropertyOp23
 70
     1
102
RTVSPropertyOp24
 70
     1
102
RTVSPropertyOp25
 70
     1
102
RTVSPropertyOp26
 70
     1
102
RTVSPropertyOp27
 70
     1
102
RTVSPropertyOp28
 70
     1
102
RTVSPropertyOp29
 70
     1
102
RTVSPropertyOp30
 70
     1
102
RTVSPropertyOp31
 70
     1
102
RTVSPropertyOp32
 70
     1
102
RTVSPropertyOp33
 70
     1
102
RTVSPropertyOp34
 70
     1
102
RTVSPropertyOp35
 70
     1
102
RTVSPropertyOp36
 70
     1
102
RTVSPropertyOp37
 70
     1
102
RTVSPropertyOp38
 70
     1
102
RTVSPropertyOp39
 70
     1
102
RTVSPropertyOp40
 70
     1
102
RTVSPropertyOp41
 70
     1
102
RTVSPropertyOp42
 70
     1
102
RTVSPropertyOp43
 70
     1
102
RTVSPropertyOp44
 70
     1
102
RTVSPropertyOp45
 70
     1
102
RTVSPropertyOp46
 70
     1
102
RTVSPropertyOp47
 70
     1
102
RTVSPropertyOp48
 70
     1
102
RTVSPropertyOp49
 70
     1
102
RTVSPropertyOp50
 70
     1
102
RTVSPropertyOp51
 70
     0
102
RTVSPropertyOp52
 70
     0
102
RTVSPropertyOp53
 70
     1
102
RTVSPropertyOp54
 70
     1
102
RTVSPropertyOp55
 70
     1
102
RTVSPropertyOp56
 70
     1
102
RTVSPropertyOp57
 70
     1
102
RTVSPost2010Prop28
280
     0
102
RTVSPost2010PropOp28
 70
     1
102
RTVSPost2010Prop29
280
     1
102
RTVSPost2010PropOp29
 70
     1
102
RTVSPost2010Prop30
280
     1
102
RTVSPost2010PropOp30
 70
     1
102
RTVSPost2010Prop31
280
     0
102
RTVSPost2010PropOp31
 70
     1
102
RTVSPost2010Prop32
280
     0
102
RTVSPost2010PropOp32
 70
     1
102
RTVSPost2010Prop33
280
     0
102
RTVSPost2010PropOp33
 70
     1
102
RTVSPost2010Prop34
280
     0
102
RTVSPost2010PropOp34
 70
     1
102
RTVSPost2010Prop35
280
     0
102
RTVSPost2010PropOp35
 70
     1
102
RTVSPost2010Prop36
280
     0
102
RTVSPost2010PropOp36
 70
     1
102
RTVSPost2010Prop37
 90
       50
102
RTVSPost2010PropOp37
 70
     1
102
RTVSPost2010Prop38
140
0.0
102
RTVSPost2010PropOp38
 70
     1
102
RTVSPost2010Prop39
140
1.0
102
RTVSPost2010PropOp39
 70
     1
102
RTVSPost2010Prop40
 90
        0
102
RTVSPost2010PropOp40
 70
     1
102
RTVSPost2010Prop41ColorIndex
 90
       18
102
RTVSPost2010Prop41ColorRGB
 90
        0
102
RTVSPost2010PropOp41
 70
     1
102
RTVSPost2010Prop42
 90
       50
102
RTVSPost2010PropOp42
 70
     1
102
RTVSPost2010Prop43
 90
        3
102
RTVSPost2010PropOp43
 70
     1
102
RTVSPost2010Prop44ColorIndex
 90
        5
102
RTVSPost2010Prop44ColorRGB
 90
      255
102
RTVSPost2010PropOp44
 70
     1
102
RTVSPost2010Prop45
280
     0
102
RTVSPost2010PropOp45
 70
     1
102
RTVSPost2010Prop46
 90
       50
102
RTVSPost2010PropOp46
 70
     1
102
RTVSPost2010Prop47
 90
       50
102
RTVSPost2010PropOp47
 70
     1
102
RTVSPost2010Prop48
 90
       50
102
RTVSPost2010PropOp48
 70
     1
102
RTVSPost2010Prop49
280
     0
102
RTVSPost2010PropOp49
 70
     1
102
RTVSPost2010Prop50
 90
       50
102
RTVSPost2010PropOp50
 70
     1
102
RTVSPost2010Prop51ColorIndex
 90
      256
102
RTVSPost2010Prop51ColorRGB
 90
-16777216
102
RTVSPost2010PropOp51
 70
     0
102
RTVSPost2010Prop52
140
1.0
102
RTVSPost2010PropOp52
 70
     0
102
RTVSPost2010Prop53
 90
        2
102
RTVSPost2010PropOp53
 70
     1
102
RTVSPost2010Prop54
  1
strokes_ogs.tif
102
RTVSPost2010PropOp54
 70
     1
102
RTVSPost2010Prop55
280
     0
102
RTVSPost2010PropOp55
 70
     1
102
RTVSPost2010Prop56
140
1.0
102
RTVSPost2010PropOp56
 70
     1
102
RTVSPost2010Prop57
140
1.0
102
RTVSPost2010PropOp57
 70
     1
  0
XRECORD
  5
153
102
{ACAD_REACTORS
330
152
102
}
330
152
100
AcDbXrecord
280
     1
102
RTVSPropertyOp0
 70
     0
102
RTVSPropertyOp1
 70
     0
102
RTVSPropertyOp2
 70
     0
102
RTVSPropertyOp3
 70
     0
102
RTVSPropertyOp4
 70
     0
102
RTVSPropertyOp5
 70
     0
102
RTVSPropertyOp6
 70
     0
102
RTVSPropertyOp7
 70
     0
102
RTVSPropertyOp8
 70
     0
102
RTVSPropertyOp9
 70
     0
102
RTVSPropertyOp10
 70
     0
102
RTVSPropertyOp11
 70
     0
102
RTVSPropertyOp12
 70
     0
102
RTVSPropertyOp13
 70
     0
102
RTVSPropertyOp14
 70
     2
102
RTVSPropertyOp15
 70
     0
102
RTVSPropertyOp16
 70
     0
102
RTVSPropertyOp17
 70
     0
102
RTVSPropertyOp18
 70
     0
102
RTVSPropertyOp19
 70
     0
102
RTVSPropertyOp20
 70
     0
102
RTVSPropertyOp21
 70
     0
102
RTVSPropertyOp22
 70
     0
102
RTVSPropertyOp23
 70
     0
102
RTVSPropertyOp24
 70
     0
102
RTVSPropertyOp25
 70
     0
102
RTVSPropertyOp26
 70
     0
102
RTVSPropertyOp27
 70
     0
102
RTVSPropertyOp28
 70
     0
102
RTVSPropertyOp29
 70
     0
102
RTVSPropertyOp30
 70
     0
102
RTVSPropertyOp31
 70
     0
102
RTVSPropertyOp32
 70
     0
102
RTVSPropertyOp33
 70
     0
102
RTVSPropertyOp34
 70
     0
102
RTVSPropertyOp35
 70
     0
102
RTVSPropertyOp36
 70
     0
102
RTVSPropertyOp37
 70
     0
102
RTVSPropertyOp38
 70
     0
102
RTVSPropertyOp39
 70
     0
102
RTVSPropertyOp40
 70
     0
102
RTVSPropertyOp41
 70
     0
102
RTVSPropertyOp42
 70
     0
102
RTVSPropertyOp43
 70
     0
102
RTVSPropertyOp44
 70
     0
102
RTVSPropertyOp45
 70
     0
102
RTVSPropertyOp46
 70
     0
102
RTVSPropertyOp47
 70
     0
102
RTVSPropertyOp48
 70
     0
102
RTVSPropertyOp49
 70
     0
102
RTVSPropertyOp50
 70
     0
102
RTVSPropertyOp51
 70
     0
102
RTVSPropertyOp52
 70
     0
102
RTVSPropertyOp53
 70
     0
102
RTVSPropertyOp54
 70
     0
102
RTVSPropertyOp55
 70
     0
102
RTVSPropertyOp56
 70
     0
102
RTVSPropertyOp57
 70
     0
102
RTVSPost2010Prop28
280
     0
102
RTVSPost2010PropOp28
 70
     0
102
RTVSPost2010Prop29
280
     1
102
RTVSPost2010PropOp29
 70
     0
102
RTVSPost2010Prop30
280
     1
102
RTVSPost2010PropOp30
 70
     0
102
RTVSPost2010Prop31
280
     0
102
RTVSPost2010PropOp31
 70
     0
102
RTVSPost2010Prop32
280
     0
102
RTVSPost2010PropOp32
 70
     0
102
RTVSPost2010Prop33
280
     0
102
RTVSPost2010PropOp33
 70
     0
102
RTVSPost2010Prop34
280
     0
102
RTVSPost2010PropOp34
 70
     0
102
RTVSPost2010Prop35
280
     0
102
RTVSPost2010PropOp35
 70
     0
102
RTVSPost2010Prop36
280
     0
102
RTVSPost2010PropOp36
 70
     0
102
RTVSPost2010Prop37
 90
       50
102
RTVSPost2010PropOp37
 70
     0
102
RTVSPost2010Prop38
140
0.0
102
RTVSPost2010PropOp38
 70
     0
102
RTVSPost2010Prop39
140
1.0
102
RTVSPost2010PropOp39
 70
     0
102
RTVSPost2010Prop40
 90
        0
102
RTVSPost2010PropOp40
 70
     0
102
RTVSPost2010Prop41ColorIndex
 90
       18
102
RTVSPost2010Prop41ColorRGB
 90
        0
102
RTVSPost2010PropOp41
 70
     0
102
RTVSPost2010Prop42
 90
       50
102
RTVSPost2010PropOp42
 70
     0
102
RTVSPost2010Prop43
 90
        3
102
RTVSPost2010PropOp43
 70
     0
102
RTVSPost2010Prop44ColorIndex
 90
        5
102
RTVSPost2010Prop44ColorRGB
 90
      255
102
RTVSPost2010PropOp44
 70
     0
102
RTVSPost2010Prop45
280
     0
102
RTVSPost2010PropOp45
 70
     0
102
RTVSPost2010Prop46
 90
       50
102
RTVSPost2010PropOp46
 70
     0
102
RTVSPost2010Prop47
 90
       50
102
RTVSPost2010PropOp47
 70
     0
102
RTVSPost2010Prop48
 90
       50
102
RTVSPost2010PropOp48
 70
     0
102
RTVSPost2010Prop49
280
     0
102
RTVSPost2010PropOp49
 70
     0
102
RTVSPost2010Prop50
 90
       50
102
RTVSPost2010PropOp50
 70
     0
102
RTVSPost2010Prop51ColorIndex
 90
      256
102
RTVSPost2010Prop51ColorRGB
 90
-16777216
102
RTVSPost2010PropOp51
 70
     0
102
RTVSPost2010Prop52
140
1.0
102
RTVSPost2010PropOp52
 70
     0
102
RTVSPost2010Prop53
 90
        2
102
RTVSPost2010PropOp53
 70
     0
102
RTVSPost2010Prop54
  1
strokes_ogs.tif
102
RTVSPost2010PropOp54
 70
     0
102
RTVSPost2010Prop55
280
     0
102
RTVSPost2010PropOp55
 70
     0
102
RTVSPost2010Prop56
140
1.0
102
RTVSPost2010PropOp56
 70
     0
102
RTVSPost2010Prop57
140
1.0
102
RTVSPost2010PropOp57
 70
     0
  0
XRECORD
  5
14B
102
{ACAD_REACTORS
330
14A
102
}
330
14A
100
AcDbXrecord
280
     1
102
RTVSPropertyOp0
 70
     1
102
RTVSPropertyOp1
 70
     1
102
RTVSPropertyOp2
 70
     1
102
RTVSPropertyOp3
 70
     1
102
RTVSPropertyOp4
 70
     1
102
RTVSPropertyOp5
 70
     1
102
RTVSPropertyOp6
 70
     1
102
RTVSPropertyOp7
 70
     1
102
RTVSPropertyOp8
 70
     1
102
RTVSPropertyOp9
 70
     1
102
RTVSPropertyOp10
 70
     1
102
RTVSPropertyOp11
 70
     1
102
RTVSPropertyOp12
 70
     1
102
RTVSPropertyOp13
 70
     1
102
RTVSPropertyOp14
 70
     1
102
RTVSPropertyOp15
 70
     1
102
RTVSPropertyOp16
 70
     1
102
RTVSPropertyOp17
 70
     1
102
RTVSPropertyOp18
 70
     1
102
RTVSPropertyOp19
 70
     1
102
RTVSPropertyOp20
 70
     1
102
RTVSPropertyOp21
 70
     1
102
RTVSPropertyOp22
 70
     1
102
RTVSPropertyOp23
 70
     1
102
RTVSPropertyOp24
 70
     1
102
RTVSPropertyOp25
 70
     1
102
RTVSPropertyOp26
 70
     1
102
RTVSPropertyOp27
 70
     1
102
RTVSPropertyOp28
 70
     1
102
RTVSPropertyOp29
 70
     1
102
RTVSPropertyOp30
 70
     1
102
RTVSPropertyOp31
 70
     1
102
RTVSPropertyOp32
 70
     1
102
RTVSPropertyOp33
 70
     1
102
RTVSPropertyOp34
 70
     1
102
RTVSPropertyOp35
 70
     1
102
RTVSPropertyOp36
 70
     1
102
RTVSPropertyOp37
 70
     1
102
RTVSPropertyOp38
 70
     1
102
RTVSPropertyOp39
 70
     1
102
RTVSPropertyOp40
 70
     1
102
RTVSPropertyOp41
 70
     1
102
RTVSPropertyOp42
 70
     1
102
RTVSPropertyOp43
 70
     1
102
RTVSPropertyOp44
 70
     1
102
RTVSPropertyOp45
 70
     1
102
RTVSPropertyOp46
 70
     1
102
RTVSPropertyOp47
 70
     1
102
RTVSPropertyOp48
 70
     1
102
RTVSPropertyOp49
 70
     1
102
RTVSPropertyOp50
 70
     1
102
RTVSPropertyOp51
 70
     0
102
RTVSPropertyOp52
 70
     0
102
RTVSPropertyOp53
 70
     1
102
RTVSPropertyOp54
 70
     1
102
RTVSPropertyOp55
 70
     1
102
RTVSPropertyOp56
 70
     1
102
RTVSPropertyOp57
 70
     1
102
RTVSPost2010Prop28
280
     0
102
RTVSPost2010PropOp28
 70
     1
102
RTVSPost2010Prop29
280
     1
102
RTVSPost2010PropOp29
 70
     1
102
RTVSPost2010Prop30
280
     1
102
RTVSPost2010PropOp30
 70
     1
102
RTVSPost2010Prop31
280
     0
102
RTVSPost2010PropOp31
 70
     1
102
RTVSPost2010Prop32
280
     0
102
RTVSPost2010PropOp32
 70
     1
102
RTVSPost2010Prop33
280
     0
102
RTVSPost2010PropOp33
 70
     1
102
RTVSPost2010Prop34
280
     0
102
RTVSPost2010PropOp34
 70
     1
102
RTVSPost2010Prop35
280
     0
102
RTVSPost2010PropOp35
 70
     1
102
RTVSPost2010Prop36
280
     0
102
RTVSPost2010PropOp36
 70
     1
102
RTVSPost2010Prop37
 90
       50
102
RTVSPost2010PropOp37
 70
     1
102
RTVSPost2010Prop38
140
0.0
102
RTVSPost2010PropOp38
 70
     1
102
RTVSPost2010Prop39
140
1.0
102
RTVSPost2010PropOp39
 70
     1
102
RTVSPost2010Prop40
 90
        0
102
RTVSPost2010PropOp40
 70
     1
102
RTVSPost2010Prop41ColorIndex
 90
       18
102
RTVSPost2010Prop41ColorRGB
 90
        0
102
RTVSPost2010PropOp41
 70
     1
102
RTVSPost2010Prop42
 90
       50
102
RTVSPost2010PropOp42
 70
     1
102
RTVSPost2010Prop43
 90
        3
102
RTVSPost2010PropOp43
 70
     1
102
RTVSPost2010Prop44ColorIndex
 90
        5
102
RTVSPost2010Prop44ColorRGB
 90
      255
102
RTVSPost2010PropOp44
 70
     1
102
RTVSPost2010Prop45
280
     0
102
RTVSPost2010PropOp45
 70
     1
102
RTVSPost2010Prop46
 90
       50
102
RTVSPost2010PropOp46
 70
     1
102
RTVSPost2010Prop47
 90
       50
102
RTVSPost2010PropOp47
 70
     1
102
RTVSPost2010Prop48
 90
       50
102
RTVSPost2010PropOp48
 70
     1
102
RTVSPost2010Prop49
280
     0
102
RTVSPost2010PropOp49
 70
     1
102
RTVSPost2010Prop50
 90
       50
102
RTVSPost2010PropOp50
 70
     1
102
RTVSPost2010Prop51ColorIndex
 90
      256
102
RTVSPost2010Prop51ColorRGB
 90
-16777216
102
RTVSPost2010PropOp51
 70
     0
102
RTVSPost2010Prop52
140
1.0
102
RTVSPost2010PropOp52
 70
     0
102
RTVSPost2010Prop53
 90
        2
102
RTVSPost2010PropOp53
 70
     1
102
RTVSPost2010Prop54
  1
strokes_ogs.tif
102
RTVSPost2010PropOp54
 70
     1
102
RTVSPost2010Prop55
280
     0
102
RTVSPost2010PropOp55
 70
     1
102
RTVSPost2010Prop56
140
1.0
102
RTVSPost2010PropOp56
 70
     1
102
RTVSPost2010Prop57
140
1.0
102
RTVSPost2010PropOp57
 70
     1
  0
XRECORD
  5
12F
102
{ACAD_REACTORS
330
12E
102
}
330
12E
100
AcDbXrecord
280
     1
102
RTVSPropertyOp0
 70
     1
102
RTVSPropertyOp1
 70
     1
102
RTVSPropertyOp2
 70
     1
102
RTVSPropertyOp3
 70
     1
102
RTVSPropertyOp4
 70
     1
102
RTVSPropertyOp5
 70
     1
102
RTVSPropertyOp6
 70
     1
102
RTVSPropertyOp7
 70
     1
102
RTVSPropertyOp8
 70
     1
102
RTVSPropertyOp9
 70
     1
102
RTVSPropertyOp10
 70
     1
102
RTVSPropertyOp11
 70
     1
102
RTVSPropertyOp12
 70
     1
102
RTVSPropertyOp13
 70
     1
102
RTVSPropertyOp14
 70
     1
102
RTVSPropertyOp15
 70
     1
102
RTVSPropertyOp16
 70
     1
102
RTVSPropertyOp17
 70
     1
102
RTVSPropertyOp18
 70
     1
102
RTVSPropertyOp19
 70
     1
102
RTVSPropertyOp20
 70
     1
102
RTVSPropertyOp21
 70
     1
102
RTVSPropertyOp22
 70
     1
102
RTVSPropertyOp23
 70
     1
102
RTVSPropertyOp24
 70
     1
102
RTVSPropertyOp25
 70
     1
102
RTVSPropertyOp26
 70
     1
102
RTVSPropertyOp27
 70
     1
102
RTVSPropertyOp28
 70
     1
102
RTVSPropertyOp29
 70
     1
102
RTVSPropertyOp30
 70
     1
102
RTVSPropertyOp31
 70
     1
102
RTVSPropertyOp32
 70
     1
102
RTVSPropertyOp33
 70
     1
102
RTVSPropertyOp34
 70
     1
102
RTVSPropertyOp35
 70
     1
102
RTVSPropertyOp36
 70
     1
102
RTVSPropertyOp37
 70
     1
102
RTVSPropertyOp38
 70
     1
102
RTVSPropertyOp39
 70
     1
102
RTVSPropertyOp40
 70
     1
102
RTVSPropertyOp41
 70
     1
102
RTVSPropertyOp42
 70
     1
102
RTVSPropertyOp43
 70
     1
102
RTVSPropertyOp44
 70
     1
102
RTVSPropertyOp45
 70
     1
102
RTVSPropertyOp46
 70
     1
102
RTVSPropertyOp47
 70
     1
102
RTVSPropertyOp48
 70
     1
102
RTVSPropertyOp49
 70
     1
102
RTVSPropertyOp50
 70
     1
102
RTVSPropertyOp51
 70
     0
102
RTVSPropertyOp52
 70
     0
102
RTVSPropertyOp53
 70
     1
102
RTVSPropertyOp54
 70
     1
102
RTVSPropertyOp55
 70
     1
102
RTVSPropertyOp56
 70
     1
102
RTVSPropertyOp57
 70
     1
102
RTVSPost2010Prop28
280
     0
102
RTVSPost2010PropOp28
 70
     1
102
RTVSPost2010Prop29
280
     1
102
RTVSPost2010PropOp29
 70
     1
102
RTVSPost2010Prop30
280
     1
102
RTVSPost2010PropOp30
 70
     1
102
RTVSPost2010Prop31
280
     0
102
RTVSPost2010PropOp31
 70
     1
102
RTVSPost2010Prop32
280
     0
102
RTVSPost2010PropOp32
 70
     1
102
RTVSPost2010Prop33
280
     0
102
RTVSPost2010PropOp33
 70
     1
102
RTVSPost2010Prop34
280
     0
102
RTVSPost2010PropOp34
 70
     1
102
RTVSPost2010Prop35
280
     0
102
RTVSPost2010PropOp35
 70
     1
102
RTVSPost2010Prop36
280
     0
102
RTVSPost2010PropOp36
 70
     1
102
RTVSPost2010Prop37
 90
       50
102
RTVSPost2010PropOp37
 70
     1
102
RTVSPost2010Prop38
140
0.0
102
RTVSPost2010PropOp38
 70
     1
102
RTVSPost2010Prop39
140
1.0
102
RTVSPost2010PropOp39
 70
     1
102
RTVSPost2010Prop40
 90
        0
102
RTVSPost2010PropOp40
 70
     1
102
RTVSPost2010Prop41ColorIndex
 90
       18
102
RTVSPost2010Prop41ColorRGB
 90
        0
102
RTVSPost2010PropOp41
 70
     1
102
RTVSPost2010Prop42
 90
       50
102
RTVSPost2010PropOp42
 70
     1
102
RTVSPost2010Prop43
 90
        3
102
RTVSPost2010PropOp43
 70
     1
102
RTVSPost2010Prop44ColorIndex
 90
        5
102
RTVSPost2010Prop44ColorRGB
 90
      255
102
RTVSPost2010PropOp44
 70
     1
102
RTVSPost2010Prop45
280
     0
102
RTVSPost2010PropOp45
 70
     1
102
RTVSPost2010Prop46
 90
       50
102
RTVSPost2010PropOp46
 70
     1
102
RTVSPost2010Prop47
 90
       50
102
RTVSPost2010PropOp47
 70
     1
102
RTVSPost2010Prop48
 90
       50
102
RTVSPost2010PropOp48
 70
     1
102
RTVSPost2010Prop49
280
     0
102
RTVSPost2010PropOp49
 70
     1
102
RTVSPost2010Prop50
 90
       50
102
RTVSPost2010PropOp50
 70
     1
102
RTVSPost2010Prop51ColorIndex
 90
      256
102
RTVSPost2010Prop51ColorRGB
 90
-16777216
102
RTVSPost2010PropOp51
 70
     0
102
RTVSPost2010Prop52
140
1.0
102
RTVSPost2010PropOp52
 70
     0
102
RTVSPost2010Prop53
 90
        2
102
RTVSPost2010PropOp53
 70
     1
102
RTVSPost2010Prop54
  1
strokes_ogs.tif
102
RTVSPost2010PropOp54
 70
     1
102
RTVSPost2010Prop55
280
     0
102
RTVSPost2010PropOp55
 70
     1
102
RTVSPost2010Prop56
140
1.0
102
RTVSPost2010PropOp56
 70
     1
102
RTVSPost2010Prop57
140
1.0
102
RTVSPost2010PropOp57
 70
     1
  0
XRECORD
  5
131
102
{ACAD_REACTORS
330
130
102
}
330
130
100
AcDbXrecord
280
     1
102
RTVSPropertyOp0
 70
     1
102
RTVSPropertyOp1
 70
     1
102
RTVSPropertyOp2
 70
     1
102
RTVSPropertyOp3
 70
     1
102
RTVSPropertyOp4
 70
     1
102
RTVSPropertyOp5
 70
     1
102
RTVSPropertyOp6
 70
     1
102
RTVSPropertyOp7
 70
     1
102
RTVSPropertyOp8
 70
     1
102
RTVSPropertyOp9
 70
     1
102
RTVSPropertyOp10
 70
     1
102
RTVSPropertyOp11
 70
     1
102
RTVSPropertyOp12
 70
     1
102
RTVSPropertyOp13
 70
     1
102
RTVSPropertyOp14
 70
     1
102
RTVSPropertyOp15
 70
     1
102
RTVSPropertyOp16
 70
     1
102
RTVSPropertyOp17
 70
     1
102
RTVSPropertyOp18
 70
     1
102
RTVSPropertyOp19
 70
     1
102
RTVSPropertyOp20
 70
     1
102
RTVSPropertyOp21
 70
     1
102
RTVSPropertyOp22
 70
     1
102
RTVSPropertyOp23
 70
     1
102
RTVSPropertyOp24
 70
     1
102
RTVSPropertyOp25
 70
     1
102
RTVSPropertyOp26
 70
     1
102
RTVSPropertyOp27
 70
     1
102
RTVSPropertyOp28
 70
     1
102
RTVSPropertyOp29
 70
     1
102
RTVSPropertyOp30
 70
     1
102
RTVSPropertyOp31
 70
     1
102
RTVSPropertyOp32
 70
     1
102
RTVSPropertyOp33
 70
     1
102
RTVSPropertyOp34
 70
     1
102
RTVSPropertyOp35
 70
     1
102
RTVSPropertyOp36
 70
     1
102
RTVSPropertyOp37
 70
     1
102
RTVSPropertyOp38
 70
     1
102
RTVSPropertyOp39
 70
     1
102
RTVSPropertyOp40
 70
     1
102
RTVSPropertyOp41
 70
     1
102
RTVSPropertyOp42
 70
     1
102
RTVSPropertyOp43
 70
     1
102
RTVSPropertyOp44
 70
     1
102
RTVSPropertyOp45
 70
     1
102
RTVSPropertyOp46
 70
     1
102
RTVSPropertyOp47
 70
     1
102
RTVSPropertyOp48
 70
     1
102
RTVSPropertyOp49
 70
     1
102
RTVSPropertyOp50
 70
     1
102
RTVSPropertyOp51
 70
     0
102
RTVSPropertyOp52
 70
     0
102
RTVSPropertyOp53
 70
     1
102
RTVSPropertyOp54
 70
     1
102
RTVSPropertyOp55
 70
     1
102
RTVSPropertyOp56
 70
     1
102
RTVSPropertyOp57
 70
     1
102
RTVSPost2010Prop28
280
     0
102
RTVSPost2010PropOp28
 70
     1
102
RTVSPost2010Prop29
280
     1
102
RTVSPost2010PropOp29
 70
     1
102
RTVSPost2010Prop30
280
     1
102
RTVSPost2010PropOp30
 70
     1
102
RTVSPost2010Prop31
280
     0
102
RTVSPost2010PropOp31
 70
     1
102
RTVSPost2010Prop32
280
     0
102
RTVSPost2010PropOp32
 70
     1
102
RTVSPost2010Prop33
280
     0
102
RTVSPost2010PropOp33
 70
     1
102
RTVSPost2010Prop34
280
     0
102
RTVSPost2010PropOp34
 70
     1
102
RTVSPost2010Prop35
280
     0
102
RTVSPost2010PropOp35
 70
     1
102
RTVSPost2010Prop36
280
     0
102
RTVSPost2010PropOp36
 70
     1
102
RTVSPost2010Prop37
 90
       50
102
RTVSPost2010PropOp37
 70
     1
102
RTVSPost2010Prop38
140
0.0
102
RTVSPost2010PropOp38
 70
     1
102
RTVSPost2010Prop39
140
1.0
102
RTVSPost2010PropOp39
 70
     1
102
RTVSPost2010Prop40
 90
        0
102
RTVSPost2010PropOp40
 70
     1
102
RTVSPost2010Prop41ColorIndex
 90
       18
102
RTVSPost2010Prop41ColorRGB
 90
        0
102
RTVSPost2010PropOp41
 70
     1
102
RTVSPost2010Prop42
 90
       50
102
RTVSPost2010PropOp42
 70
     1
102
RTVSPost2010Prop43
 90
        3
102
RTVSPost2010PropOp43
 70
     1
102
RTVSPost2010Prop44ColorIndex
 90
        5
102
RTVSPost2010Prop44ColorRGB
 90
      255
102
RTVSPost2010PropOp44
 70
     1
102
RTVSPost2010Prop45
280
     0
102
RTVSPost2010PropOp45
 70
     1
102
RTVSPost2010Prop46
 90
       50
102
RTVSPost2010PropOp46
 70
     1
102
RTVSPost2010Prop47
 90
       50
102
RTVSPost2010PropOp47
 70
     1
102
RTVSPost2010Prop48
 90
       50
102
RTVSPost2010PropOp48
 70
     1
102
RTVSPost2010Prop49
280
     0
102
RTVSPost2010PropOp49
 70
     1
102
RTVSPost2010Prop50
 90
       50
102
RTVSPost2010PropOp50
 70
     1
102
RTVSPost2010Prop51ColorIndex
 90
      256
102
RTVSPost2010Prop51ColorRGB
 90
-16777216
102
RTVSPost2010PropOp51
 70
     0
102
RTVSPost2010Prop52
140
1.0
102
RTVSPost2010PropOp52
 70
     0
102
RTVSPost2010Prop53
 90
        2
102
RTVSPost2010PropOp53
 70
     1
102
RTVSPost2010Prop54
  1
strokes_ogs.tif
102
RTVSPost2010PropOp54
 70
     1
102
RTVSPost2010Prop55
280
     0
102
RTVSPost2010PropOp55
 70
     1
102
RTVSPost2010Prop56
140
1.0
102
RTVSPost2010PropOp56
 70
     1
102
RTVSPost2010Prop57
140
1.0
102
RTVSPost2010PropOp57
 70
     1
  0
XRECORD
  5
133
102
{ACAD_REACTORS
330
132
102
}
330
132
100
AcDbXrecord
280
     1
102
RTVSPropertyOp0
 70
     1
102
RTVSPropertyOp1
 70
     1
102
RTVSPropertyOp2
 70
     1
102
RTVSPropertyOp3
 70
     1
102
RTVSPropertyOp4
 70
     1
102
RTVSPropertyOp5
 70
     1
102
RTVSPropertyOp6
 70
     1
102
RTVSPropertyOp7
 70
     1
102
RTVSPropertyOp8
 70
     1
102
RTVSPropertyOp9
 70
     1
102
RTVSPropertyOp10
 70
     1
102
RTVSPropertyOp11
 70
     1
102
RTVSPropertyOp12
 70
     1
102
RTVSPropertyOp13
 70
     1
102
RTVSPropertyOp14
 70
     1
102
RTVSPropertyOp15
 70
     1
102
RTVSPropertyOp16
 70
     1
102
RTVSPropertyOp17
 70
     1
102
RTVSPropertyOp18
 70
     1
102
RTVSPropertyOp19
 70
     1
102
RTVSPropertyOp20
 70
     1
102
RTVSPropertyOp21
 70
     1
102
RTVSPropertyOp22
 70
     1
102
RTVSPropertyOp23
 70
     1
102
RTVSPropertyOp24
 70
     1
102
RTVSPropertyOp25
 70
     1
102
RTVSPropertyOp26
 70
     1
102
RTVSPropertyOp27
 70
     1
102
RTVSPropertyOp28
 70
     1
102
RTVSPropertyOp29
 70
     1
102
RTVSPropertyOp30
 70
     1
102
RTVSPropertyOp31
 70
     1
102
RTVSPropertyOp32
 70
     1
102
RTVSPropertyOp33
 70
     1
102
RTVSPropertyOp34
 70
     1
102
RTVSPropertyOp35
 70
     1
102
RTVSPropertyOp36
 70
     1
102
RTVSPropertyOp37
 70
     1
102
RTVSPropertyOp38
 70
     1
102
RTVSPropertyOp39
 70
     1
102
RTVSPropertyOp40
 70
     1
102
RTVSPropertyOp41
 70
     1
102
RTVSPropertyOp42
 70
     1
102
RTVSPropertyOp43
 70
     1
102
RTVSPropertyOp44
 70
     1
102
RTVSPropertyOp45
 70
     1
102
RTVSPropertyOp46
 70
     1
102
RTVSPropertyOp47
 70
     1
102
RTVSPropertyOp48
 70
     1
102
RTVSPropertyOp49
 70
     1
102
RTVSPropertyOp50
 70
     1
102
RTVSPropertyOp51
 70
     0
102
RTVSPropertyOp52
 70
     0
102
RTVSPropertyOp53
 70
     1
102
RTVSPropertyOp54
 70
     1
102
RTVSPropertyOp55
 70
     1
102
RTVSPropertyOp56
 70
     1
102
RTVSPropertyOp57
 70
     1
102
RTVSPost2010Prop28
280
     0
102
RTVSPost2010PropOp28
 70
     1
102
RTVSPost2010Prop29
280
     1
102
RTVSPost2010PropOp29
 70
     1
102
RTVSPost2010Prop30
280
     1
102
RTVSPost2010PropOp30
 70
     1
102
RTVSPost2010Prop31
280
     0
102
RTVSPost2010PropOp31
 70
     1
102
RTVSPost2010Prop32
280
     0
102
RTVSPost2010PropOp32
 70
     1
102
RTVSPost2010Prop33
280
     0
102
RTVSPost2010PropOp33
 70
     1
102
RTVSPost2010Prop34
280
     0
102
RTVSPost2010PropOp34
 70
     1
102
RTVSPost2010Prop35
280
     0
102
RTVSPost2010PropOp35
 70
     1
102
RTVSPost2010Prop36
280
     0
102
RTVSPost2010PropOp36
 70
     1
102
RTVSPost2010Prop37
 90
       50
102
RTVSPost2010PropOp37
 70
     1
102
RTVSPost2010Prop38
140
0.0
102
RTVSPost2010PropOp38
 70
     1
102
RTVSPost2010Prop39
140
1.0
102
RTVSPost2010PropOp39
 70
     1
102
RTVSPost2010Prop40
 90
        0
102
RTVSPost2010PropOp40
 70
     1
102
RTVSPost2010Prop41ColorIndex
 90
       18
102
RTVSPost2010Prop41ColorRGB
 90
        0
102
RTVSPost2010PropOp41
 70
     1
102
RTVSPost2010Prop42
 90
       50
102
RTVSPost2010PropOp42
 70
     1
102
RTVSPost2010Prop43
 90
        3
102
RTVSPost2010PropOp43
 70
     1
102
RTVSPost2010Prop44ColorIndex
 90
        5
102
RTVSPost2010Prop44ColorRGB
 90
      255
102
RTVSPost2010PropOp44
 70
     1
102
RTVSPost2010Prop45
280
     0
102
RTVSPost2010PropOp45
 70
     1
102
RTVSPost2010Prop46
 90
       50
102
RTVSPost2010PropOp46
 70
     1
102
RTVSPost2010Prop47
 90
       50
102
RTVSPost2010PropOp47
 70
     1
102
RTVSPost2010Prop48
 90
       50
102
RTVSPost2010PropOp48
 70
     1
102
RTVSPost2010Prop49
280
     0
102
RTVSPost2010PropOp49
 70
     1
102
RTVSPost2010Prop50
 90
       50
102
RTVSPost2010PropOp50
 70
     1
102
RTVSPost2010Prop51ColorIndex
 90
      256
102
RTVSPost2010Prop51ColorRGB
 90
-16777216
102
RTVSPost2010PropOp51
 70
     0
102
RTVSPost2010Prop52
140
1.0
102
RTVSPost2010PropOp52
 70
     0
102
RTVSPost2010Prop53
 90
        2
102
RTVSPost2010PropOp53
 70
     1
102
RTVSPost2010Prop54
  1
strokes_ogs.tif
102
RTVSPost2010PropOp54
 70
     1
102
RTVSPost2010Prop55
280
     0
102
RTVSPost2010PropOp55
 70
     1
102
RTVSPost2010Prop56
140
1.0
102
RTVSPost2010PropOp56
 70
     1
102
RTVSPost2010Prop57
140
1.0
102
RTVSPost2010PropOp57
 70
     1
  0
XRECORD
  5
135
102
{ACAD_REACTORS
330
134
102
}
330
134
100
AcDbXrecord
280
     1
102
RTVSPropertyOp0
 70
     1
102
RTVSPropertyOp1
 70
     1
102
RTVSPropertyOp2
 70
     1
102
RTVSPropertyOp3
 70
     1
102
RTVSPropertyOp4
 70
     1
102
RTVSPropertyOp5
 70
     1
102
RTVSPropertyOp6
 70
     1
102
RTVSPropertyOp7
 70
     1
102
RTVSPropertyOp8
 70
     1
102
RTVSPropertyOp9
 70
     1
102
RTVSPropertyOp10
 70
     1
102
RTVSPropertyOp11
 70
     1
102
RTVSPropertyOp12
 70
     1
102
RTVSPropertyOp13
 70
     1
102
RTVSPropertyOp14
 70
     1
102
RTVSPropertyOp15
 70
     1
102
RTVSPropertyOp16
 70
     1
102
RTVSPropertyOp17
 70
     1
102
RTVSPropertyOp18
 70
     1
102
RTVSPropertyOp19
 70
     1
102
RTVSPropertyOp20
 70
     1
102
RTVSPropertyOp21
 70
     1
102
RTVSPropertyOp22
 70
     1
102
RTVSPropertyOp23
 70
     1
102
RTVSPropertyOp24
 70
     1
102
RTVSPropertyOp25
 70
     1
102
RTVSPropertyOp26
 70
     1
102
RTVSPropertyOp27
 70
     1
102
RTVSPropertyOp28
 70
     1
102
RTVSPropertyOp29
 70
     1
102
RTVSPropertyOp30
 70
     1
102
RTVSPropertyOp31
 70
     1
102
RTVSPropertyOp32
 70
     1
102
RTVSPropertyOp33
 70
     1
102
RTVSPropertyOp34
 70
     1
102
RTVSPropertyOp35
 70
     1
102
RTVSPropertyOp36
 70
     1
102
RTVSPropertyOp37
 70
     1
102
RTVSPropertyOp38
 70
     1
102
RTVSPropertyOp39
 70
     1
102
RTVSPropertyOp40
 70
     1
102
RTVSPropertyOp41
 70
     1
102
RTVSPropertyOp42
 70
     1
102
RTVSPropertyOp43
 70
     1
102
RTVSPropertyOp44
 70
     1
102
RTVSPropertyOp45
 70
     1
102
RTVSPropertyOp46
 70
     1
102
RTVSPropertyOp47
 70
     1
102
RTVSPropertyOp48
 70
     1
102
RTVSPropertyOp49
 70
     1
102
RTVSPropertyOp50
 70
     1
102
RTVSPropertyOp51
 70
     0
102
RTVSPropertyOp52
 70
     0
102
RTVSPropertyOp53
 70
     1
102
RTVSPropertyOp54
 70
     1
102
RTVSPropertyOp55
 70
     1
102
RTVSPropertyOp56
 70
     1
102
RTVSPropertyOp57
 70
     1
102
RTVSPost2010Prop28
280
     0
102
RTVSPost2010PropOp28
 70
     1
102
RTVSPost2010Prop29
280
     1
102
RTVSPost2010PropOp29
 70
     1
102
RTVSPost2010Prop30
280
     1
102
RTVSPost2010PropOp30
 70
     1
102
RTVSPost2010Prop31
280
     0
102
RTVSPost2010PropOp31
 70
     1
102
RTVSPost2010Prop32
280
     0
102
RTVSPost2010PropOp32
 70
     1
102
RTVSPost2010Prop33
280
     0
102
RTVSPost2010PropOp33
 70
     1
102
RTVSPost2010Prop34
280
     0
102
RTVSPost2010PropOp34
 70
     1
102
RTVSPost2010Prop35
280
     0
102
RTVSPost2010PropOp35
 70
     1
102
RTVSPost2010Prop36
280
     0
102
RTVSPost2010PropOp36
 70
     1
102
RTVSPost2010Prop37
 90
       50
102
RTVSPost2010PropOp37
 70
     1
102
RTVSPost2010Prop38
140
0.0
102
RTVSPost2010PropOp38
 70
     1
102
RTVSPost2010Prop39
140
1.0
102
RTVSPost2010PropOp39
 70
     1
102
RTVSPost2010Prop40
 90
        0
102
RTVSPost2010PropOp40
 70
     1
102
RTVSPost2010Prop41ColorIndex
 90
       18
102
RTVSPost2010Prop41ColorRGB
 90
        0
102
RTVSPost2010PropOp41
 70
     1
102
RTVSPost2010Prop42
 90
       50
102
RTVSPost2010PropOp42
 70
     1
102
RTVSPost2010Prop43
 90
        3
102
RTVSPost2010PropOp43
 70
     1
102
RTVSPost2010Prop44ColorIndex
 90
        5
102
RTVSPost2010Prop44ColorRGB
 90
      255
102
RTVSPost2010PropOp44
 70
     1
102
RTVSPost2010Prop45
280
     0
102
RTVSPost2010PropOp45
 70
     1
102
RTVSPost2010Prop46
 90
       50
102
RTVSPost2010PropOp46
 70
     1
102
RTVSPost2010Prop47
 90
       50
102
RTVSPost2010PropOp47
 70
     1
102
RTVSPost2010Prop48
 90
       50
102
RTVSPost2010PropOp48
 70
     1
102
RTVSPost2010Prop49
280
     0
102
RTVSPost2010PropOp49
 70
     1
102
RTVSPost2010Prop50
 90
       50
102
RTVSPost2010PropOp50
 70
     1
102
RTVSPost2010Prop51ColorIndex
 90
      256
102
RTVSPost2010Prop51ColorRGB
 90
-16777216
102
RTVSPost2010PropOp51
 70
     0
102
RTVSPost2010Prop52
140
1.0
102
RTVSPost2010PropOp52
 70
     0
102
RTVSPost2010Prop53
 90
        2
102
RTVSPost2010PropOp53
 70
     1
102
RTVSPost2010Prop54
  1
strokes_ogs.tif
102
RTVSPost2010PropOp54
 70
     1
102
RTVSPost2010Prop55
280
     0
102
RTVSPost2010PropOp55
 70
     1
102
RTVSPost2010Prop56
140
1.0
102
RTVSPost2010PropOp56
 70
     1
102
RTVSPost2010Prop57
140
1.0
102
RTVSPost2010PropOp57
 70
     1
  0
XRECORD
  5
13B
102
{ACAD_REACTORS
330
13A
102
}
330
13A
100
AcDbXrecord
280
     1
102
RTVSPropertyOp0
 70
     1
102
RTVSPropertyOp1
 70
     1
102
RTVSPropertyOp2
 70
     1
102
RTVSPropertyOp3
 70
     1
102
RTVSPropertyOp4
 70
     1
102
RTVSPropertyOp5
 70
     1
102
RTVSPropertyOp6
 70
     1
102
RTVSPropertyOp7
 70
     1
102
RTVSPropertyOp8
 70
     1
102
RTVSPropertyOp9
 70
     1
102
RTVSPropertyOp10
 70
     1
102
RTVSPropertyOp11
 70
     1
102
RTVSPropertyOp12
 70
     1
102
RTVSPropertyOp13
 70
     1
102
RTVSPropertyOp14
 70
     1
102
RTVSPropertyOp15
 70
     1
102
RTVSPropertyOp16
 70
     1
102
RTVSPropertyOp17
 70
     1
102
RTVSPropertyOp18
 70
     1
102
RTVSPropertyOp19
 70
     1
102
RTVSPropertyOp20
 70
     1
102
RTVSPropertyOp21
 70
     1
102
RTVSPropertyOp22
 70
     1
102
RTVSPropertyOp23
 70
     1
102
RTVSPropertyOp24
 70
     1
102
RTVSPropertyOp25
 70
     1
102
RTVSPropertyOp26
 70
     1
102
RTVSPropertyOp27
 70
     1
102
RTVSPropertyOp28
 70
     1
102
RTVSPropertyOp29
 70
     1
102
RTVSPropertyOp30
 70
     1
102
RTVSPropertyOp31
 70
     1
102
RTVSPropertyOp32
 70
     1
102
RTVSPropertyOp33
 70
     1
102
RTVSPropertyOp34
 70
     1
102
RTVSPropertyOp35
 70
     1
102
RTVSPropertyOp36
 70
     1
102
RTVSPropertyOp37
 70
     1
102
RTVSPropertyOp38
 70
     1
102
RTVSPropertyOp39
 70
     1
102
RTVSPropertyOp40
 70
     1
102
RTVSPropertyOp41
 70
     1
102
RTVSPropertyOp42
 70
     1
102
RTVSPropertyOp43
 70
     1
102
RTVSPropertyOp44
 70
     1
102
RTVSPropertyOp45
 70
     1
102
RTVSPropertyOp46
 70
     1
102
RTVSPropertyOp47
 70
     1
102
RTVSPropertyOp48
 70
     1
102
RTVSPropertyOp49
 70
     1
102
RTVSPropertyOp50
 70
     1
102
RTVSPropertyOp51
 70
     0
102
RTVSPropertyOp52
 70
     0
102
RTVSPropertyOp53
 70
     1
102
RTVSPropertyOp54
 70
     1
102
RTVSPropertyOp55
 70
     1
102
RTVSPropertyOp56
 70
     1
102
RTVSPropertyOp57
 70
     1
102
RTVSPost2010Prop28
280
     0
102
RTVSPost2010PropOp28
 70
     1
102
RTVSPost2010Prop29
280
     1
102
RTVSPost2010PropOp29
 70
     1
102
RTVSPost2010Prop30
280
     1
102
RTVSPost2010PropOp30
 70
     1
102
RTVSPost2010Prop31
280
     0
102
RTVSPost2010PropOp31
 70
     1
102
RTVSPost2010Prop32
280
     0
102
RTVSPost2010PropOp32
 70
     1
102
RTVSPost2010Prop33
280
     0
102
RTVSPost2010PropOp33
 70
     1
102
RTVSPost2010Prop34
280
     0
102
RTVSPost2010PropOp34
 70
     1
102
RTVSPost2010Prop35
280
     0
102
RTVSPost2010PropOp35
 70
     1
102
RTVSPost2010Prop36
280
     0
102
RTVSPost2010PropOp36
 70
     1
102
RTVSPost2010Prop37
 90
       50
102
RTVSPost2010PropOp37
 70
     1
102
RTVSPost2010Prop38
140
0.0
102
RTVSPost2010PropOp38
 70
     1
102
RTVSPost2010Prop39
140
1.0
102
RTVSPost2010PropOp39
 70
     1
102
RTVSPost2010Prop40
 90
        0
102
RTVSPost2010PropOp40
 70
     1
102
RTVSPost2010Prop41ColorIndex
 90
       18
102
RTVSPost2010Prop41ColorRGB
 90
        0
102
RTVSPost2010PropOp41
 70
     1
102
RTVSPost2010Prop42
 90
       50
102
RTVSPost2010PropOp42
 70
     1
102
RTVSPost2010Prop43
 90
        3
102
RTVSPost2010PropOp43
 70
     1
102
RTVSPost2010Prop44ColorIndex
 90
        5
102
RTVSPost2010Prop44ColorRGB
 90
      255
102
RTVSPost2010PropOp44
 70
     1
102
RTVSPost2010Prop45
280
     0
102
RTVSPost2010PropOp45
 70
     1
102
RTVSPost2010Prop46
 90
       50
102
RTVSPost2010PropOp46
 70
     1
102
RTVSPost2010Prop47
 90
       50
102
RTVSPost2010PropOp47
 70
     1
102
RTVSPost2010Prop48
 90
       50
102
RTVSPost2010PropOp48
 70
     1
102
RTVSPost2010Prop49
280
     0
102
RTVSPost2010PropOp49
 70
     1
102
RTVSPost2010Prop50
 90
       50
102
RTVSPost2010PropOp50
 70
     1
102
RTVSPost2010Prop51ColorIndex
 90
      256
102
RTVSPost2010Prop51ColorRGB
 90
-16777216
102
RTVSPost2010PropOp51
 70
     0
102
RTVSPost2010Prop52
140
1.0
102
RTVSPost2010PropOp52
 70
     0
102
RTVSPost2010Prop53
 90
        2
102
RTVSPost2010PropOp53
 70
     1
102
RTVSPost2010Prop54
  1
strokes_ogs.tif
102
RTVSPost2010PropOp54
 70
     1
102
RTVSPost2010Prop55
280
     0
102
RTVSPost2010PropOp55
 70
     1
102
RTVSPost2010Prop56
140
1.0
102
RTVSPost2010PropOp56
 70
     1
102
RTVSPost2010Prop57
140
1.0
102
RTVSPost2010PropOp57
 70
     1
  0
XRECORD
  5
14F
102
{ACAD_REACTORS
330
14E
102
}
330
14E
100
AcDbXrecord
280
     1
102
RTVSPropertyOp0
 70
     0
102
RTVSPropertyOp1
 70
     0
102
RTVSPropertyOp2
 70
     0
102
RTVSPropertyOp3
 70
     0
102
RTVSPropertyOp4
 70
     0
102
RTVSPropertyOp5
 70
     0
102
RTVSPropertyOp6
 70
     0
102
RTVSPropertyOp7
 70
     0
102
RTVSPropertyOp8
 70
     0
102
RTVSPropertyOp9
 70
     0
102
RTVSPropertyOp10
 70
     0
102
RTVSPropertyOp11
 70
     0
102
RTVSPropertyOp12
 70
     0
102
RTVSPropertyOp13
 70
     0
102
RTVSPropertyOp14
 70
     2
102
RTVSPropertyOp15
 70
     0
102
RTVSPropertyOp16
 70
     0
102
RTVSPropertyOp17
 70
     0
102
RTVSPropertyOp18
 70
     0
102
RTVSPropertyOp19
 70
     0
102
RTVSPropertyOp20
 70
     0
102
RTVSPropertyOp21
 70
     0
102
RTVSPropertyOp22
 70
     0
102
RTVSPropertyOp23
 70
     0
102
RTVSPropertyOp24
 70
     0
102
RTVSPropertyOp25
 70
     0
102
RTVSPropertyOp26
 70
     0
102
RTVSPropertyOp27
 70
     0
102
RTVSPropertyOp28
 70
     0
102
RTVSPropertyOp29
 70
     0
102
RTVSPropertyOp30
 70
     0
102
RTVSPropertyOp31
 70
     0
102
RTVSPropertyOp32
 70
     0
102
RTVSPropertyOp33
 70
     0
102
RTVSPropertyOp34
 70
     0
102
RTVSPropertyOp35
 70
     0
102
RTVSPropertyOp36
 70
     0
102
RTVSPropertyOp37
 70
     0
102
RTVSPropertyOp38
 70
     0
102
RTVSPropertyOp39
 70
     0
102
RTVSPropertyOp40
 70
     0
102
RTVSPropertyOp41
 70
     0
102
RTVSPropertyOp42
 70
     0
102
RTVSPropertyOp43
 70
     0
102
RTVSPropertyOp44
 70
     0
102
RTVSPropertyOp45
 70
     0
102
RTVSPropertyOp46
 70
     0
102
RTVSPropertyOp47
 70
     0
102
RTVSPropertyOp48
 70
     0
102
RTVSPropertyOp49
 70
     0
102
RTVSPropertyOp50
 70
     0
102
RTVSPropertyOp51
 70
     0
102
RTVSPropertyOp52
 70
     0
102
RTVSPropertyOp53
 70
     0
102
RTVSPropertyOp54
 70
     0
102
RTVSPropertyOp55
 70
     0
102
RTVSPropertyOp56
 70
     0
102
RTVSPropertyOp57
 70
     0
102
RTVSPost2010Prop28
280
     0
102
RTVSPost2010PropOp28
 70
     0
102
RTVSPost2010Prop29
280
     1
102
RTVSPost2010PropOp29
 70
     0
102
RTVSPost2010Prop30
280
     1
102
RTVSPost2010PropOp30
 70
     0
102
RTVSPost2010Prop31
280
     0
102
RTVSPost2010PropOp31
 70
     0
102
RTVSPost2010Prop32
280
     0
102
RTVSPost2010PropOp32
 70
     0
102
RTVSPost2010Prop33
280
     0
102
RTVSPost2010PropOp33
 70
     0
102
RTVSPost2010Prop34
280
     0
102
RTVSPost2010PropOp34
 70
     0
102
RTVSPost2010Prop35
280
     0
102
RTVSPost2010PropOp35
 70
     0
102
RTVSPost2010Prop36
280
     0
102
RTVSPost2010PropOp36
 70
     0
102
RTVSPost2010Prop37
 90
       50
102
RTVSPost2010PropOp37
 70
     0
102
RTVSPost2010Prop38
140
0.0
102
RTVSPost2010PropOp38
 70
     0
102
RTVSPost2010Prop39
140
1.0
102
RTVSPost2010PropOp39
 70
     0
102
RTVSPost2010Prop40
 90
        0
102
RTVSPost2010PropOp40
 70
     0
102
RTVSPost2010Prop41ColorIndex
 90
       18
102
RTVSPost2010Prop41ColorRGB
 90
        0
102
RTVSPost2010PropOp41
 70
     0
102
RTVSPost2010Prop42
 90
       50
102
RTVSPost2010PropOp42
 70
     0
102
RTVSPost2010Prop43
 90
        3
102
RTVSPost2010PropOp43
 70
     0
102
RTVSPost2010Prop44ColorIndex
 90
        5
102
RTVSPost2010Prop44ColorRGB
 90
      255
102
RTVSPost2010PropOp44
 70
     0
102
RTVSPost2010Prop45
280
     0
102
RTVSPost2010PropOp45
 70
     0
102
RTVSPost2010Prop46
 90
       50
102
RTVSPost2010PropOp46
 70
     0
102
RTVSPost2010Prop47
 90
       50
102
RTVSPost2010PropOp47
 70
     0
102
RTVSPost2010Prop48
 90
       50
102
RTVSPost2010PropOp48
 70
     0
102
RTVSPost2010Prop49
280
     0
102
RTVSPost2010PropOp49
 70
     0
102
RTVSPost2010Prop50
 90
       50
102
RTVSPost2010PropOp50
 70
     0
102
RTVSPost2010Prop51ColorIndex
 90
      256
102
RTVSPost2010Prop51ColorRGB
 90
-16777216
102
RTVSPost2010PropOp51
 70
     0
102
RTVSPost2010Prop52
140
1.0
102
RTVSPost2010PropOp52
 70
     0
102
RTVSPost2010Prop53
 90
        2
102
RTVSPost2010PropOp53
 70
     0
102
RTVSPost2010Prop54
  1
strokes_ogs.tif
102
RTVSPost2010PropOp54
 70
     0
102
RTVSPost2010Prop55
280
     0
102
RTVSPost2010PropOp55
 70
     0
102
RTVSPost2010Prop56
140
1.0
102
RTVSPost2010PropOp56
 70
     0
102
RTVSPost2010Prop57
140
1.0
102
RTVSPost2010PropOp57
 70
     0
  0
XRECORD
  5
149
102
{ACAD_REACTORS
330
148
102
}
330
148
100
AcDbXrecord
280
     1
102
RTVSPropertyOp0
 70
     1
102
RTVSPropertyOp1
 70
     1
102
RTVSPropertyOp2
 70
     1
102
RTVSPropertyOp3
 70
     1
102
RTVSPropertyOp4
 70
     1
102
RTVSPropertyOp5
 70
     1
102
RTVSPropertyOp6
 70
     1
102
RTVSPropertyOp7
 70
     1
102
RTVSPropertyOp8
 70
     1
102
RTVSPropertyOp9
 70
     1
102
RTVSPropertyOp10
 70
     1
102
RTVSPropertyOp11
 70
     1
102
RTVSPropertyOp12
 70
     1
102
RTVSPropertyOp13
 70
     1
102
RTVSPropertyOp14
 70
     1
102
RTVSPropertyOp15
 70
     1
102
RTVSPropertyOp16
 70
     1
102
RTVSPropertyOp17
 70
     1
102
RTVSPropertyOp18
 70
     1
102
RTVSPropertyOp19
 70
     1
102
RTVSPropertyOp20
 70
     1
102
RTVSPropertyOp21
 70
     1
102
RTVSPropertyOp22
 70
     1
102
RTVSPropertyOp23
 70
     1
102
RTVSPropertyOp24
 70
     1
102
RTVSPropertyOp25
 70
     1
102
RTVSPropertyOp26
 70
     1
102
RTVSPropertyOp27
 70
     1
102
RTVSPropertyOp28
 70
     1
102
RTVSPropertyOp29
 70
     1
102
RTVSPropertyOp30
 70
     1
102
RTVSPropertyOp31
 70
     1
102
RTVSPropertyOp32
 70
     1
102
RTVSPropertyOp33
 70
     1
102
RTVSPropertyOp34
 70
     1
102
RTVSPropertyOp35
 70
     1
102
RTVSPropertyOp36
 70
     1
102
RTVSPropertyOp37
 70
     1
102
RTVSPropertyOp38
 70
     1
102
RTVSPropertyOp39
 70
     1
102
RTVSPropertyOp40
 70
     1
102
RTVSPropertyOp41
 70
     1
102
RTVSPropertyOp42
 70
     1
102
RTVSPropertyOp43
 70
     1
102
RTVSPropertyOp44
 70
     1
102
RTVSPropertyOp45
 70
     1
102
RTVSPropertyOp46
 70
     1
102
RTVSPropertyOp47
 70
     1
102
RTVSPropertyOp48
 70
     1
102
RTVSPropertyOp49
 70
     1
102
RTVSPropertyOp50
 70
     1
102
RTVSPropertyOp51
 70
     0
102
RTVSPropertyOp52
 70
     0
102
RTVSPropertyOp53
 70
     1
102
RTVSPropertyOp54
 70
     1
102
RTVSPropertyOp55
 70
     1
102
RTVSPropertyOp56
 70
     1
102
RTVSPropertyOp57
 70
     1
102
RTVSPost2010Prop28
280
     0
102
RTVSPost2010PropOp28
 70
     1
102
RTVSPost2010Prop29
280
     1
102
RTVSPost2010PropOp29
 70
     1
102
RTVSPost2010Prop30
280
     1
102
RTVSPost2010PropOp30
 70
     1
102
RTVSPost2010Prop31
280
     0
102
RTVSPost2010PropOp31
 70
     1
102
RTVSPost2010Prop32
280
     0
102
RTVSPost2010PropOp32
 70
     1
102
RTVSPost2010Prop33
280
     0
102
RTVSPost2010PropOp33
 70
     1
102
RTVSPost2010Prop34
280
     0
102
RTVSPost2010PropOp34
 70
     1
102
RTVSPost2010Prop35
280
     0
102
RTVSPost2010PropOp35
 70
     1
102
RTVSPost2010Prop36
280
     0
102
RTVSPost2010PropOp36
 70
     1
102
RTVSPost2010Prop37
 90
       50
102
RTVSPost2010PropOp37
 70
     1
102
RTVSPost2010Prop38
140
0.0
102
RTVSPost2010PropOp38
 70
     1
102
RTVSPost2010Prop39
140
1.0
102
RTVSPost2010PropOp39
 70
     1
102
RTVSPost2010Prop40
 90
        0
102
RTVSPost2010PropOp40
 70
     1
102
RTVSPost2010Prop41ColorIndex
 90
       18
102
RTVSPost2010Prop41ColorRGB
 90
        0
102
RTVSPost2010PropOp41
 70
     1
102
RTVSPost2010Prop42
 90
       50
102
RTVSPost2010PropOp42
 70
     1
102
RTVSPost2010Prop43
 90
        3
102
RTVSPost2010PropOp43
 70
     1
102
RTVSPost2010Prop44ColorIndex
 90
        5
102
RTVSPost2010Prop44ColorRGB
 90
      255
102
RTVSPost2010PropOp44
 70
     1
102
RTVSPost2010Prop45
280
     0
102
RTVSPost2010PropOp45
 70
     1
102
RTVSPost2010Prop46
 90
       50
102
RTVSPost2010PropOp46
 70
     1
102
RTVSPost2010Prop47
 90
       50
102
RTVSPost2010PropOp47
 70
     1
102
RTVSPost2010Prop48
 90
       50
102
RTVSPost2010PropOp48
 70
     1
102
RTVSPost2010Prop49
280
     0
102
RTVSPost2010PropOp49
 70
     1
102
RTVSPost2010Prop50
 90
       50
102
RTVSPost2010PropOp50
 70
     1
102
RTVSPost2010Prop51ColorIndex
 90
      256
102
RTVSPost2010Prop51ColorRGB
 90
-16777216
102
RTVSPost2010PropOp51
 70
     0
102
RTVSPost2010Prop52
140
1.0
102
RTVSPost2010PropOp52
 70
     0
102
RTVSPost2010Prop53
 90
        2
102
RTVSPost2010PropOp53
 70
     1
102
RTVSPost2010Prop54
  1
strokes_ogs.tif
102
RTVSPost2010PropOp54
 70
     1
102
RTVSPost2010Prop55
280
     0
102
RTVSPost2010PropOp55
 70
     1
102
RTVSPost2010Prop56
140
1.0
102
RTVSPost2010PropOp56
 70
     1
102
RTVSPost2010Prop57
140
1.0
102
RTVSPost2010PropOp57
 70
     1
  0
XRECORD
  5
151
102
{ACAD_REACTORS
330
150
102
}
330
150
100
AcDbXrecord
280
     1
102
RTVSPropertyOp0
 70
     0
102
RTVSPropertyOp1
 70
     0
102
RTVSPropertyOp2
 70
     0
102
RTVSPropertyOp3
 70
     0
102
RTVSPropertyOp4
 70
     0
102
RTVSPropertyOp5
 70
     0
102
RTVSPropertyOp6
 70
     0
102
RTVSPropertyOp7
 70
     0
102
RTVSPropertyOp8
 70
     0
102
RTVSPropertyOp9
 70
     0
102
RTVSPropertyOp10
 70
     0
102
RTVSPropertyOp11
 70
     0
102
RTVSPropertyOp12
 70
     0
102
RTVSPropertyOp13
 70
     0
102
RTVSPropertyOp14
 70
     2
102
RTVSPropertyOp15
 70
     0
102
RTVSPropertyOp16
 70
     0
102
RTVSPropertyOp17
 70
     0
102
RTVSPropertyOp18
 70
     0
102
RTVSPropertyOp19
 70
     0
102
RTVSPropertyOp20
 70
     0
102
RTVSPropertyOp21
 70
     0
102
RTVSPropertyOp22
 70
     0
102
RTVSPropertyOp23
 70
     0
102
RTVSPropertyOp24
 70
     0
102
RTVSPropertyOp25
 70
     0
102
RTVSPropertyOp26
 70
     0
102
RTVSPropertyOp27
 70
     0
102
RTVSPropertyOp28
 70
     0
102
RTVSPropertyOp29
 70
     0
102
RTVSPropertyOp30
 70
     0
102
RTVSPropertyOp31
 70
     0
102
RTVSPropertyOp32
 70
     0
102
RTVSPropertyOp33
 70
     0
102
RTVSPropertyOp34
 70
     0
102
RTVSPropertyOp35
 70
     0
102
RTVSPropertyOp36
 70
     0
102
RTVSPropertyOp37
 70
     0
102
RTVSPropertyOp38
 70
     0
102
RTVSPropertyOp39
 70
     0
102
RTVSPropertyOp40
 70
     0
102
RTVSPropertyOp41
 70
     0
102
RTVSPropertyOp42
 70
     0
102
RTVSPropertyOp43
 70
     0
102
RTVSPropertyOp44
 70
     0
102
RTVSPropertyOp45
 70
     0
102
RTVSPropertyOp46
 70
     0
102
RTVSPropertyOp47
 70
     0
102
RTVSPropertyOp48
 70
     0
102
RTVSPropertyOp49
 70
     0
102
RTVSPropertyOp50
 70
     0
102
RTVSPropertyOp51
 70
     0
102
RTVSPropertyOp52
 70
     0
102
RTVSPropertyOp53
 70
     0
102
RTVSPropertyOp54
 70
     0
102
RTVSPropertyOp55
 70
     0
102
RTVSPropertyOp56
 70
     0
102
RTVSPropertyOp57
 70
     0
102
RTVSPost2010Prop28
280
     0
102
RTVSPost2010PropOp28
 70
     0
102
RTVSPost2010Prop29
280
     1
102
RTVSPost2010PropOp29
 70
     0
102
RTVSPost2010Prop30
280
     1
102
RTVSPost2010PropOp30
 70
     0
102
RTVSPost2010Prop31
280
     0
102
RTVSPost2010PropOp31
 70
     0
102
RTVSPost2010Prop32
280
     0
102
RTVSPost2010PropOp32
 70
     0
102
RTVSPost2010Prop33
280
     0
102
RTVSPost2010PropOp33
 70
     0
102
RTVSPost2010Prop34
280
     0
102
RTVSPost2010PropOp34
 70
     0
102
RTVSPost2010Prop35
280
     0
102
RTVSPost2010PropOp35
 70
     0
102
RTVSPost2010Prop36
280
     0
102
RTVSPost2010PropOp36
 70
     0
102
RTVSPost2010Prop37
 90
       50
102
RTVSPost2010PropOp37
 70
     0
102
RTVSPost2010Prop38
140
0.0
102
RTVSPost2010PropOp38
 70
     0
102
RTVSPost2010Prop39
140
1.0
102
RTVSPost2010PropOp39
 70
     0
102
RTVSPost2010Prop40
 90
        0
102
RTVSPost2010PropOp40
 70
     0
102
RTVSPost2010Prop41ColorIndex
 90
       18
102
RTVSPost2010Prop41ColorRGB
 90
        0
102
RTVSPost2010PropOp41
 70
     0
102
RTVSPost2010Prop42
 90
       50
102
RTVSPost2010PropOp42
 70
     0
102
RTVSPost2010Prop43
 90
        3
102
RTVSPost2010PropOp43
 70
     0
102
RTVSPost2010Prop44ColorIndex
 90
        5
102
RTVSPost2010Prop44ColorRGB
 90
      255
102
RTVSPost2010PropOp44
 70
     0
102
RTVSPost2010Prop45
280
     0
102
RTVSPost2010PropOp45
 70
     0
102
RTVSPost2010Prop46
 90
       50
102
RTVSPost2010PropOp46
 70
     0
102
RTVSPost2010Prop47
 90
       50
102
RTVSPost2010PropOp47
 70
     0
102
RTVSPost2010Prop48
 90
       50
102
RTVSPost2010PropOp48
 70
     0
102
RTVSPost2010Prop49
280
     0
102
RTVSPost2010PropOp49
 70
     0
102
RTVSPost2010Prop50
 90
       50
102
RTVSPost2010PropOp50
 70
     0
102
RTVSPost2010Prop51ColorIndex
 90
      256
102
RTVSPost2010Prop51ColorRGB
 90
-16777216
102
RTVSPost2010PropOp51
 70
     0
102
RTVSPost2010Prop52
140
1.0
102
RTVSPost2010PropOp52
 70
     0
102
RTVSPost2010Prop53
 90
        2
102
RTVSPost2010PropOp53
 70
     0
102
RTVSPost2010Prop54
  1
strokes_ogs.tif
102
RTVSPost2010PropOp54
 70
     0
102
RTVSPost2010Prop55
280
     0
102
RTVSPost2010PropOp55
 70
     0
102
RTVSPost2010Prop56
140
1.0
102
RTVSPost2010PropOp56
 70
     0
102
RTVSPost2010Prop57
140
1.0
102
RTVSPost2010PropOp57
 70
     0
  0
XRECORD
  5
13F
102
{ACAD_REACTORS
330
13E
102
}
330
13E
100
AcDbXrecord
280
     1
102
RTVSPropertyOp0
 70
     1
102
RTVSPropertyOp1
 70
     1
102
RTVSPropertyOp2
 70
     1
102
RTVSPropertyOp3
 70
     1
102
RTVSPropertyOp4
 70
     1
102
RTVSPropertyOp5
 70
     1
102
RTVSPropertyOp6
 70
     1
102
RTVSPropertyOp7
 70
     1
102
RTVSPropertyOp8
 70
     1
102
RTVSPropertyOp9
 70
     1
102
RTVSPropertyOp10
 70
     1
102
RTVSPropertyOp11
 70
     1
102
RTVSPropertyOp12
 70
     1
102
RTVSPropertyOp13
 70
     1
102
RTVSPropertyOp14
 70
     1
102
RTVSPropertyOp15
 70
     1
102
RTVSPropertyOp16
 70
     1
102
RTVSPropertyOp17
 70
     1
102
RTVSPropertyOp18
 70
     1
102
RTVSPropertyOp19
 70
     1
102
RTVSPropertyOp20
 70
     1
102
RTVSPropertyOp21
 70
     1
102
RTVSPropertyOp22
 70
     1
102
RTVSPropertyOp23
 70
     1
102
RTVSPropertyOp24
 70
     1
102
RTVSPropertyOp25
 70
     1
102
RTVSPropertyOp26
 70
     1
102
RTVSPropertyOp27
 70
     1
102
RTVSPropertyOp28
 70
     1
102
RTVSPropertyOp29
 70
     1
102
RTVSPropertyOp30
 70
     1
102
RTVSPropertyOp31
 70
     1
102
RTVSPropertyOp32
 70
     1
102
RTVSPropertyOp33
 70
     1
102
RTVSPropertyOp34
 70
     1
102
RTVSPropertyOp35
 70
     1
102
RTVSPropertyOp36
 70
     1
102
RTVSPropertyOp37
 70
     1
102
RTVSPropertyOp38
 70
     1
102
RTVSPropertyOp39
 70
     1
102
RTVSPropertyOp40
 70
     1
102
RTVSPropertyOp41
 70
     1
102
RTVSPropertyOp42
 70
     1
102
RTVSPropertyOp43
 70
     1
102
RTVSPropertyOp44
 70
     1
102
RTVSPropertyOp45
 70
     1
102
RTVSPropertyOp46
 70
     1
102
RTVSPropertyOp47
 70
     1
102
RTVSPropertyOp48
 70
     1
102
RTVSPropertyOp49
 70
     1
102
RTVSPropertyOp50
 70
     1
102
RTVSPropertyOp51
 70
     0
102
RTVSPropertyOp52
 70
     0
102
RTVSPropertyOp53
 70
     1
102
RTVSPropertyOp54
 70
     1
102
RTVSPropertyOp55
 70
     1
102
RTVSPropertyOp56
 70
     1
102
RTVSPropertyOp57
 70
     1
102
RTVSPost2010Prop28
280
     0
102
RTVSPost2010PropOp28
 70
     1
102
RTVSPost2010Prop29
280
     1
102
RTVSPost2010PropOp29
 70
     1
102
RTVSPost2010Prop30
280
     1
102
RTVSPost2010PropOp30
 70
     1
102
RTVSPost2010Prop31
280
     0
102
RTVSPost2010PropOp31
 70
     1
102
RTVSPost2010Prop32
280
     0
102
RTVSPost2010PropOp32
 70
     1
102
RTVSPost2010Prop33
280
     0
102
RTVSPost2010PropOp33
 70
     1
102
RTVSPost2010Prop34
280
     0
102
RTVSPost2010PropOp34
 70
     1
102
RTVSPost2010Prop35
280
     0
102
RTVSPost2010PropOp35
 70
     1
102
RTVSPost2010Prop36
280
     0
102
RTVSPost2010PropOp36
 70
     1
102
RTVSPost2010Prop37
 90
       50
102
RTVSPost2010PropOp37
 70
     1
102
RTVSPost2010Prop38
140
0.0
102
RTVSPost2010PropOp38
 70
     1
102
RTVSPost2010Prop39
140
1.0
102
RTVSPost2010PropOp39
 70
     1
102
RTVSPost2010Prop40
 90
        0
102
RTVSPost2010PropOp40
 70
     1
102
RTVSPost2010Prop41ColorIndex
 90
       18
102
RTVSPost2010Prop41ColorRGB
 90
        0
102
RTVSPost2010PropOp41
 70
     1
102
RTVSPost2010Prop42
 90
       50
102
RTVSPost2010PropOp42
 70
     1
102
RTVSPost2010Prop43
 90
        3
102
RTVSPost2010PropOp43
 70
     1
102
RTVSPost2010Prop44ColorIndex
 90
        5
102
RTVSPost2010Prop44ColorRGB
 90
      255
102
RTVSPost2010PropOp44
 70
     1
102
RTVSPost2010Prop45
280
     0
102
RTVSPost2010PropOp45
 70
     1
102
RTVSPost2010Prop46
 90
       50
102
RTVSPost2010PropOp46
 70
     1
102
RTVSPost2010Prop47
 90
       50
102
RTVSPost2010PropOp47
 70
     1
102
RTVSPost2010Prop48
 90
       50
102
RTVSPost2010PropOp48
 70
     1
102
RTVSPost2010Prop49
280
     0
102
RTVSPost2010PropOp49
 70
     1
102
RTVSPost2010Prop50
 90
       50
102
RTVSPost2010PropOp50
 70
     1
102
RTVSPost2010Prop51ColorIndex
 90
      256
102
RTVSPost2010Prop51ColorRGB
 90
-16777216
102
RTVSPost2010PropOp51
 70
     0
102
RTVSPost2010Prop52
140
1.0
102
RTVSPost2010PropOp52
 70
     0
102
RTVSPost2010Prop53
 90
        2
102
RTVSPost2010PropOp53
 70
     1
102
RTVSPost2010Prop54
  1
strokes_ogs.tif
102
RTVSPost2010PropOp54
 70
     1
102
RTVSPost2010Prop55
280
     0
102
RTVSPost2010PropOp55
 70
     1
102
RTVSPost2010Prop56
140
1.0
102
RTVSPost2010PropOp56
 70
     1
102
RTVSPost2010Prop57
140
1.0
102
RTVSPost2010PropOp57
 70
     1
  0
XRECORD
  5
15D
102
{ACAD_REACTORS
330
15C
102
}
330
15C
100
AcDbXrecord
280
     1
102
RTVSPropertyOp0
 70
     1
102
RTVSPropertyOp1
 70
     1
102
RTVSPropertyOp2
 70
     1
102
RTVSPropertyOp3
 70
     1
102
RTVSPropertyOp4
 70
     1
102
RTVSPropertyOp5
 70
     1
102
RTVSPropertyOp6
 70
     1
102
RTVSPropertyOp7
 70
     1
102
RTVSPropertyOp8
 70
     1
102
RTVSPropertyOp9
 70
     1
102
RTVSPropertyOp10
 70
     1
102
RTVSPropertyOp11
 70
     1
102
RTVSPropertyOp12
 70
     1
102
RTVSPropertyOp13
 70
     1
102
RTVSPropertyOp14
 70
     1
102
RTVSPropertyOp15
 70
     1
102
RTVSPropertyOp16
 70
     1
102
RTVSPropertyOp17
 70
     1
102
RTVSPropertyOp18
 70
     1
102
RTVSPropertyOp19
 70
     1
102
RTVSPropertyOp20
 70
     1
102
RTVSPropertyOp21
 70
     1
102
RTVSPropertyOp22
 70
     1
102
RTVSPropertyOp23
 70
     1
102
RTVSPropertyOp24
 70
     1
102
RTVSPropertyOp25
 70
     1
102
RTVSPropertyOp26
 70
     1
102
RTVSPropertyOp27
 70
     1
102
RTVSPropertyOp28
 70
     1
102
RTVSPropertyOp29
 70
     1
102
RTVSPropertyOp30
 70
     1
102
RTVSPropertyOp31
 70
     1
102
RTVSPropertyOp32
 70
     1
102
RTVSPropertyOp33
 70
     1
102
RTVSPropertyOp34
 70
     1
102
RTVSPropertyOp35
 70
     1
102
RTVSPropertyOp36
 70
     1
102
RTVSPropertyOp37
 70
     1
102
RTVSPropertyOp38
 70
     1
102
RTVSPropertyOp39
 70
     1
102
RTVSPropertyOp40
 70
     1
102
RTVSPropertyOp41
 70
     1
102
RTVSPropertyOp42
 70
     1
102
RTVSPropertyOp43
 70
     1
102
RTVSPropertyOp44
 70
     1
102
RTVSPropertyOp45
 70
     1
102
RTVSPropertyOp46
 70
     1
102
RTVSPropertyOp47
 70
     1
102
RTVSPropertyOp48
 70
     1
102
RTVSPropertyOp49
 70
     1
102
RTVSPropertyOp50
 70
     1
102
RTVSPropertyOp51
 70
     0
102
RTVSPropertyOp52
 70
     0
102
RTVSPropertyOp53
 70
     1
102
RTVSPropertyOp54
 70
     1
102
RTVSPropertyOp55
 70
     1
102
RTVSPropertyOp56
 70
     1
102
RTVSPropertyOp57
 70
     1
102
RTVSPost2010Prop28
280
     0
102
RTVSPost2010PropOp28
 70
     1
102
RTVSPost2010Prop29
280
     1
102
RTVSPost2010PropOp29
 70
     1
102
RTVSPost2010Prop30
280
     1
102
RTVSPost2010PropOp30
 70
     1
102
RTVSPost2010Prop31
280
     0
102
RTVSPost2010PropOp31
 70
     1
102
RTVSPost2010Prop32
280
     0
102
RTVSPost2010PropOp32
 70
     1
102
RTVSPost2010Prop33
280
     0
102
RTVSPost2010PropOp33
 70
     1
102
RTVSPost2010Prop34
280
     0
102
RTVSPost2010PropOp34
 70
     1
102
RTVSPost2010Prop35
280
     0
102
RTVSPost2010PropOp35
 70
     1
102
RTVSPost2010Prop36
280
     0
102
RTVSPost2010PropOp36
 70
     1
102
RTVSPost2010Prop37
 90
       50
102
RTVSPost2010PropOp37
 70
     1
102
RTVSPost2010Prop38
140
0.0
102
RTVSPost2010PropOp38
 70
     1
102
RTVSPost2010Prop39
140
1.0
102
RTVSPost2010PropOp39
 70
     1
102
RTVSPost2010Prop40
 90
        0
102
RTVSPost2010PropOp40
 70
     1
102
RTVSPost2010Prop41ColorIndex
 90
       18
102
RTVSPost2010Prop41ColorRGB
 90
        0
102
RTVSPost2010PropOp41
 70
     1
102
RTVSPost2010Prop42
 90
       50
102
RTVSPost2010PropOp42
 70
     1
102
RTVSPost2010Prop43
 90
        3
102
RTVSPost2010PropOp43
 70
     1
102
RTVSPost2010Prop44ColorIndex
 90
        5
102
RTVSPost2010Prop44ColorRGB
 90
      255
102
RTVSPost2010PropOp44
 70
     1
102
RTVSPost2010Prop45
280
     0
102
RTVSPost2010PropOp45
 70
     1
102
RTVSPost2010Prop46
 90
       50
102
RTVSPost2010PropOp46
 70
     1
102
RTVSPost2010Prop47
 90
       50
102
RTVSPost2010PropOp47
 70
     1
102
RTVSPost2010Prop48
 90
       50
102
RTVSPost2010PropOp48
 70
     1
102
RTVSPost2010Prop49
280
     0
102
RTVSPost2010PropOp49
 70
     1
102
RTVSPost2010Prop50
 90
       50
102
RTVSPost2010PropOp50
 70
     1
102
RTVSPost2010Prop51ColorIndex
 90
      256
102
RTVSPost2010Prop51ColorRGB
 90
-16777216
102
RTVSPost2010PropOp51
 70
     0
102
RTVSPost2010Prop52
140
1.0
102
RTVSPost2010PropOp52
 70
     0
102
RTVSPost2010Prop53
 90
        2
102
RTVSPost2010PropOp53
 70
     1
102
RTVSPost2010Prop54
  1
strokes_ogs.tif
102
RTVSPost2010PropOp54
 70
     1
102
RTVSPost2010Prop55
280
     0
102
RTVSPost2010PropOp55
 70
     1
102
RTVSPost2010Prop56
140
1.0
102
RTVSPost2010PropOp56
 70
     1
102
RTVSPost2010Prop57
140
1.0
102
RTVSPost2010PropOp57
 70
     1
  0
XRECORD
  5
15B
102
{ACAD_REACTORS
330
15A
102
}
330
15A
100
AcDbXrecord
280
     1
102
RTVSPropertyOp0
 70
     1
102
RTVSPropertyOp1
 70
     1
102
RTVSPropertyOp2
 70
     1
102
RTVSPropertyOp3
 70
     1
102
RTVSPropertyOp4
 70
     1
102
RTVSPropertyOp5
 70
     1
102
RTVSPropertyOp6
 70
     1
102
RTVSPropertyOp7
 70
     1
102
RTVSPropertyOp8
 70
     1
102
RTVSPropertyOp9
 70
     1
102
RTVSPropertyOp10
 70
     1
102
RTVSPropertyOp11
 70
     1
102
RTVSPropertyOp12
 70
     1
102
RTVSPropertyOp13
 70
     1
102
RTVSPropertyOp14
 70
     1
102
RTVSPropertyOp15
 70
     1
102
RTVSPropertyOp16
 70
     1
102
RTVSPropertyOp17
 70
     1
102
RTVSPropertyOp18
 70
     1
102
RTVSPropertyOp19
 70
     1
102
RTVSPropertyOp20
 70
     1
102
RTVSPropertyOp21
 70
     1
102
RTVSPropertyOp22
 70
     1
102
RTVSPropertyOp23
 70
     1
102
RTVSPropertyOp24
 70
     1
102
RTVSPropertyOp25
 70
     1
102
RTVSPropertyOp26
 70
     1
102
RTVSPropertyOp27
 70
     1
102
RTVSPropertyOp28
 70
     1
102
RTVSPropertyOp29
 70
     1
102
RTVSPropertyOp30
 70
     1
102
RTVSPropertyOp31
 70
     1
102
RTVSPropertyOp32
 70
     1
102
RTVSPropertyOp33
 70
     1
102
RTVSPropertyOp34
 70
     1
102
RTVSPropertyOp35
 70
     1
102
RTVSPropertyOp36
 70
     1
102
RTVSPropertyOp37
 70
     1
102
RTVSPropertyOp38
 70
     1
102
RTVSPropertyOp39
 70
     1
102
RTVSPropertyOp40
 70
     1
102
RTVSPropertyOp41
 70
     1
102
RTVSPropertyOp42
 70
     1
102
RTVSPropertyOp43
 70
     1
102
RTVSPropertyOp44
 70
     1
102
RTVSPropertyOp45
 70
     1
102
RTVSPropertyOp46
 70
     1
102
RTVSPropertyOp47
 70
     1
102
RTVSPropertyOp48
 70
     1
102
RTVSPropertyOp49
 70
     1
102
RTVSPropertyOp50
 70
     1
102
RTVSPropertyOp51
 70
     0
102
RTVSPropertyOp52
 70
     0
102
RTVSPropertyOp53
 70
     1
102
RTVSPropertyOp54
 70
     1
102
RTVSPropertyOp55
 70
     1
102
RTVSPropertyOp56
 70
     1
102
RTVSPropertyOp57
 70
     1
102
RTVSPost2010Prop28
280
     0
102
RTVSPost2010PropOp28
 70
     1
102
RTVSPost2010Prop29
280
     1
102
RTVSPost2010PropOp29
 70
     1
102
RTVSPost2010Prop30
280
     1
102
RTVSPost2010PropOp30
 70
     1
102
RTVSPost2010Prop31
280
     0
102
RTVSPost2010PropOp31
 70
     1
102
RTVSPost2010Prop32
280
     0
102
RTVSPost2010PropOp32
 70
     1
102
RTVSPost2010Prop33
280
     0
102
RTVSPost2010PropOp33
 70
     1
102
RTVSPost2010Prop34
280
     0
102
RTVSPost2010PropOp34
 70
     1
102
RTVSPost2010Prop35
280
     0
102
RTVSPost2010PropOp35
 70
     1
102
RTVSPost2010Prop36
280
     0
102
RTVSPost2010PropOp36
 70
     1
102
RTVSPost2010Prop37
 90
       50
102
RTVSPost2010PropOp37
 70
     1
102
RTVSPost2010Prop38
140
0.0
102
RTVSPost2010PropOp38
 70
     1
102
RTVSPost2010Prop39
140
1.0
102
RTVSPost2010PropOp39
 70
     1
102
RTVSPost2010Prop40
 90
        0
102
RTVSPost2010PropOp40
 70
     1
102
RTVSPost2010Prop41ColorIndex
 90
       18
102
RTVSPost2010Prop41ColorRGB
 90
        0
102
RTVSPost2010PropOp41
 70
     1
102
RTVSPost2010Prop42
 90
       50
102
RTVSPost2010PropOp42
 70
     1
102
RTVSPost2010Prop43
 90
        3
102
RTVSPost2010PropOp43
 70
     1
102
RTVSPost2010Prop44ColorIndex
 90
        5
102
RTVSPost2010Prop44ColorRGB
 90
      255
102
RTVSPost2010PropOp44
 70
     1
102
RTVSPost2010Prop45
280
     0
102
RTVSPost2010PropOp45
 70
     1
102
RTVSPost2010Prop46
 90
       50
102
RTVSPost2010PropOp46
 70
     1
102
RTVSPost2010Prop47
 90
       50
102
RTVSPost2010PropOp47
 70
     1
102
RTVSPost2010Prop48
 90
       50
102
RTVSPost2010PropOp48
 70
     1
102
RTVSPost2010Prop49
280
     0
102
RTVSPost2010PropOp49
 70
     1
102
RTVSPost2010Prop50
 90
       50
102
RTVSPost2010PropOp50
 70
     1
102
RTVSPost2010Prop51ColorIndex
 90
      256
102
RTVSPost2010Prop51ColorRGB
 90
-16777216
102
RTVSPost2010PropOp51
 70
     0
102
RTVSPost2010Prop52
140
1.0
102
RTVSPost2010PropOp52
 70
     0
102
RTVSPost2010Prop53
 90
        2
102
RTVSPost2010PropOp53
 70
     1
102
RTVSPost2010Prop54
  1
strokes_ogs.tif
102
RTVSPost2010PropOp54
 70
     1
102
RTVSPost2010Prop55
280
     0
102
RTVSPost2010PropOp55
 70
     1
102
RTVSPost2010Prop56
140
1.0
102
RTVSPost2010PropOp56
 70
     1
102
RTVSPost2010Prop57
140
1.0
102
RTVSPost2010PropOp57
 70
     1
  0
XRECORD
  5
155
102
{ACAD_REACTORS
330
154
102
}
330
154
100
AcDbXrecord
280
     1
102
RTVSPropertyOp0
 70
     1
102
RTVSPropertyOp1
 70
     1
102
RTVSPropertyOp2
 70
     1
102
RTVSPropertyOp3
 70
     1
102
RTVSPropertyOp4
 70
     1
102
RTVSPropertyOp5
 70
     1
102
RTVSPropertyOp6
 70
     1
102
RTVSPropertyOp7
 70
     1
102
RTVSPropertyOp8
 70
     1
102
RTVSPropertyOp9
 70
     1
102
RTVSPropertyOp10
 70
     1
102
RTVSPropertyOp11
 70
     1
102
RTVSPropertyOp12
 70
     1
102
RTVSPropertyOp13
 70
     1
102
RTVSPropertyOp14
 70
     1
102
RTVSPropertyOp15
 70
     1
102
RTVSPropertyOp16
 70
     1
102
RTVSPropertyOp17
 70
     1
102
RTVSPropertyOp18
 70
     1
102
RTVSPropertyOp19
 70
     1
102
RTVSPropertyOp20
 70
     1
102
RTVSPropertyOp21
 70
     1
102
RTVSPropertyOp22
 70
     1
102
RTVSPropertyOp23
 70
     1
102
RTVSPropertyOp24
 70
     1
102
RTVSPropertyOp25
 70
     1
102
RTVSPropertyOp26
 70
     1
102
RTVSPropertyOp27
 70
     1
102
RTVSPropertyOp28
 70
     1
102
RTVSPropertyOp29
 70
     1
102
RTVSPropertyOp30
 70
     1
102
RTVSPropertyOp31
 70
     1
102
RTVSPropertyOp32
 70
     1
102
RTVSPropertyOp33
 70
     1
102
RTVSPropertyOp34
 70
     1
102
RTVSPropertyOp35
 70
     1
102
RTVSPropertyOp36
 70
     1
102
RTVSPropertyOp37
 70
     1
102
RTVSPropertyOp38
 70
     1
102
RTVSPropertyOp39
 70
     1
102
RTVSPropertyOp40
 70
     1
102
RTVSPropertyOp41
 70
     1
102
RTVSPropertyOp42
 70
     1
102
RTVSPropertyOp43
 70
     1
102
RTVSPropertyOp44
 70
     1
102
RTVSPropertyOp45
 70
     1
102
RTVSPropertyOp46
 70
     1
102
RTVSPropertyOp47
 70
     1
102
RTVSPropertyOp48
 70
     1
102
RTVSPropertyOp49
 70
     1
102
RTVSPropertyOp50
 70
     1
102
RTVSPropertyOp51
 70
     0
102
RTVSPropertyOp52
 70
     0
102
RTVSPropertyOp53
 70
     1
102
RTVSPropertyOp54
 70
     1
102
RTVSPropertyOp55
 70
     1
102
RTVSPropertyOp56
 70
     1
102
RTVSPropertyOp57
 70
     1
102
RTVSPost2010Prop28
280
     0
102
RTVSPost2010PropOp28
 70
     1
102
RTVSPost2010Prop29
280
     1
102
RTVSPost2010PropOp29
 70
     1
102
RTVSPost2010Prop30
280
     1
102
RTVSPost2010PropOp30
 70
     1
102
RTVSPost2010Prop31
280
     0
102
RTVSPost2010PropOp31
 70
     1
102
RTVSPost2010Prop32
280
     0
102
RTVSPost2010PropOp32
 70
     1
102
RTVSPost2010Prop33
280
     0
102
RTVSPost2010PropOp33
 70
     1
102
RTVSPost2010Prop34
280
     0
102
RTVSPost2010PropOp34
 70
     1
102
RTVSPost2010Prop35
280
     0
102
RTVSPost2010PropOp35
 70
     1
102
RTVSPost2010Prop36
280
     0
102
RTVSPost2010PropOp36
 70
     1
102
RTVSPost2010Prop37
 90
       50
102
RTVSPost2010PropOp37
 70
     1
102
RTVSPost2010Prop38
140
0.0
102
RTVSPost2010PropOp38
 70
     1
102
RTVSPost2010Prop39
140
1.0
102
RTVSPost2010PropOp39
 70
     1
102
RTVSPost2010Prop40
 90
        0
102
RTVSPost2010PropOp40
 70
     1
102
RTVSPost2010Prop41ColorIndex
 90
       18
102
RTVSPost2010Prop41ColorRGB
 90
        0
102
RTVSPost2010PropOp41
 70
     1
102
RTVSPost2010Prop42
 90
       50
102
RTVSPost2010PropOp42
 70
     1
102
RTVSPost2010Prop43
 90
        3
102
RTVSPost2010PropOp43
 70
     1
102
RTVSPost2010Prop44ColorIndex
 90
        5
102
RTVSPost2010Prop44ColorRGB
 90
      255
102
RTVSPost2010PropOp44
 70
     1
102
RTVSPost2010Prop45
280
     0
102
RTVSPost2010PropOp45
 70
     1
102
RTVSPost2010Prop46
 90
       50
102
RTVSPost2010PropOp46
 70
     1
102
RTVSPost2010Prop47
 90
       50
102
RTVSPost2010PropOp47
 70
     1
102
RTVSPost2010Prop48
 90
       50
102
RTVSPost2010PropOp48
 70
     1
102
RTVSPost2010Prop49
280
     0
102
RTVSPost2010PropOp49
 70
     1
102
RTVSPost2010Prop50
 90
       50
102
RTVSPost2010PropOp50
 70
     1
102
RTVSPost2010Prop51ColorIndex
 90
      256
102
RTVSPost2010Prop51ColorRGB
 90
-16777216
102
RTVSPost2010PropOp51
 70
     0
102
RTVSPost2010Prop52
140
1.0
102
RTVSPost2010PropOp52
 70
     0
102
RTVSPost2010Prop53
 90
        2
102
RTVSPost2010PropOp53
 70
     1
102
RTVSPost2010Prop54
  1
strokes_ogs.tif
102
RTVSPost2010PropOp54
 70
     1
102
RTVSPost2010Prop55
280
     0
102
RTVSPost2010PropOp55
 70
     1
102
RTVSPost2010Prop56
140
1.0
102
RTVSPost2010PropOp56
 70
     1
102
RTVSPost2010Prop57
140
1.0
102
RTVSPost2010PropOp57
 70
     1
  0
XRECORD
  5
157
102
{ACAD_REACTORS
330
156
102
}
330
156
100
AcDbXrecord
280
     1
102
RTVSPropertyOp0
 70
     1
102
RTVSPropertyOp1
 70
     1
102
RTVSPropertyOp2
 70
     1
102
RTVSPropertyOp3
 70
     1
102
RTVSPropertyOp4
 70
     1
102
RTVSPropertyOp5
 70
     1
102
RTVSPropertyOp6
 70
     1
102
RTVSPropertyOp7
 70
     1
102
RTVSPropertyOp8
 70
     1
102
RTVSPropertyOp9
 70
     1
102
RTVSPropertyOp10
 70
     1
102
RTVSPropertyOp11
 70
     1
102
RTVSPropertyOp12
 70
     1
102
RTVSPropertyOp13
 70
     1
102
RTVSPropertyOp14
 70
     1
102
RTVSPropertyOp15
 70
     1
102
RTVSPropertyOp16
 70
     1
102
RTVSPropertyOp17
 70
     1
102
RTVSPropertyOp18
 70
     1
102
RTVSPropertyOp19
 70
     1
102
RTVSPropertyOp20
 70
     1
102
RTVSPropertyOp21
 70
     1
102
RTVSPropertyOp22
 70
     1
102
RTVSPropertyOp23
 70
     1
102
RTVSPropertyOp24
 70
     1
102
RTVSPropertyOp25
 70
     1
102
RTVSPropertyOp26
 70
     1
102
RTVSPropertyOp27
 70
     1
102
RTVSPropertyOp28
 70
     1
102
RTVSPropertyOp29
 70
     1
102
RTVSPropertyOp30
 70
     1
102
RTVSPropertyOp31
 70
     1
102
RTVSPropertyOp32
 70
     1
102
RTVSPropertyOp33
 70
     1
102
RTVSPropertyOp34
 70
     1
102
RTVSPropertyOp35
 70
     1
102
RTVSPropertyOp36
 70
     1
102
RTVSPropertyOp37
 70
     1
102
RTVSPropertyOp38
 70
     1
102
RTVSPropertyOp39
 70
     1
102
RTVSPropertyOp40
 70
     1
102
RTVSPropertyOp41
 70
     1
102
RTVSPropertyOp42
 70
     1
102
RTVSPropertyOp43
 70
     1
102
RTVSPropertyOp44
 70
     1
102
RTVSPropertyOp45
 70
     1
102
RTVSPropertyOp46
 70
     1
102
RTVSPropertyOp47
 70
     1
102
RTVSPropertyOp48
 70
     1
102
RTVSPropertyOp49
 70
     1
102
RTVSPropertyOp50
 70
     1
102
RTVSPropertyOp51
 70
     0
102
RTVSPropertyOp52
 70
     0
102
RTVSPropertyOp53
 70
     1
102
RTVSPropertyOp54
 70
     1
102
RTVSPropertyOp55
 70
     1
102
RTVSPropertyOp56
 70
     1
102
RTVSPropertyOp57
 70
     1
102
RTVSPost2010Prop28
280
     0
102
RTVSPost2010PropOp28
 70
     1
102
RTVSPost2010Prop29
280
     1
102
RTVSPost2010PropOp29
 70
     1
102
RTVSPost2010Prop30
280
     1
102
RTVSPost2010PropOp30
 70
     1
102
RTVSPost2010Prop31
280
     0
102
RTVSPost2010PropOp31
 70
     1
102
RTVSPost2010Prop32
280
     0
102
RTVSPost2010PropOp32
 70
     1
102
RTVSPost2010Prop33
280
     0
102
RTVSPost2010PropOp33
 70
     1
102
RTVSPost2010Prop34
280
     0
102
RTVSPost2010PropOp34
 70
     1
102
RTVSPost2010Prop35
280
     0
102
RTVSPost2010PropOp35
 70
     1
102
RTVSPost2010Prop36
280
     0
102
RTVSPost2010PropOp36
 70
     1
102
RTVSPost2010Prop37
 90
       50
102
RTVSPost2010PropOp37
 70
     1
102
RTVSPost2010Prop38
140
0.0
102
RTVSPost2010PropOp38
 70
     1
102
RTVSPost2010Prop39
140
1.0
102
RTVSPost2010PropOp39
 70
     1
102
RTVSPost2010Prop40
 90
        0
102
RTVSPost2010PropOp40
 70
     1
102
RTVSPost2010Prop41ColorIndex
 90
       18
102
RTVSPost2010Prop41ColorRGB
 90
        0
102
RTVSPost2010PropOp41
 70
     1
102
RTVSPost2010Prop42
 90
       50
102
RTVSPost2010PropOp42
 70
     1
102
RTVSPost2010Prop43
 90
        3
102
RTVSPost2010PropOp43
 70
     1
102
RTVSPost2010Prop44ColorIndex
 90
        5
102
RTVSPost2010Prop44ColorRGB
 90
      255
102
RTVSPost2010PropOp44
 70
     1
102
RTVSPost2010Prop45
280
     0
102
RTVSPost2010PropOp45
 70
     1
102
RTVSPost2010Prop46
 90
       50
102
RTVSPost2010PropOp46
 70
     1
102
RTVSPost2010Prop47
 90
       50
102
RTVSPost2010PropOp47
 70
     1
102
RTVSPost2010Prop48
 90
       50
102
RTVSPost2010PropOp48
 70
     1
102
RTVSPost2010Prop49
280
     0
102
RTVSPost2010PropOp49
 70
     1
102
RTVSPost2010Prop50
 90
       50
102
RTVSPost2010PropOp50
 70
     1
102
RTVSPost2010Prop51ColorIndex
 90
      256
102
RTVSPost2010Prop51ColorRGB
 90
-16777216
102
RTVSPost2010PropOp51
 70
     0
102
RTVSPost2010Prop52
140
1.0
102
RTVSPost2010PropOp52
 70
     0
102
RTVSPost2010Prop53
 90
        2
102
RTVSPost2010PropOp53
 70
     1
102
RTVSPost2010Prop54
  1
strokes_ogs.tif
102
RTVSPost2010PropOp54
 70
     1
102
RTVSPost2010Prop55
280
     0
102
RTVSPost2010PropOp55
 70
     1
102
RTVSPost2010Prop56
140
1.0
102
RTVSPost2010PropOp56
 70
     1
102
RTVSPost2010Prop57
140
1.0
102
RTVSPost2010PropOp57
 70
     1
  0
XRECORD
  5
147
102
{ACAD_REACTORS
330
146
102
}
330
146
100
AcDbXrecord
280
     1
102
RTVSPropertyOp0
 70
     1
102
RTVSPropertyOp1
 70
     1
102
RTVSPropertyOp2
 70
     1
102
RTVSPropertyOp3
 70
     1
102
RTVSPropertyOp4
 70
     1
102
RTVSPropertyOp5
 70
     1
102
RTVSPropertyOp6
 70
     1
102
RTVSPropertyOp7
 70
     1
102
RTVSPropertyOp8
 70
     1
102
RTVSPropertyOp9
 70
     1
102
RTVSPropertyOp10
 70
     1
102
RTVSPropertyOp11
 70
     1
102
RTVSPropertyOp12
 70
     1
102
RTVSPropertyOp13
 70
     1
102
RTVSPropertyOp14
 70
     1
102
RTVSPropertyOp15
 70
     1
102
RTVSPropertyOp16
 70
     1
102
RTVSPropertyOp17
 70
     1
102
RTVSPropertyOp18
 70
     1
102
RTVSPropertyOp19
 70
     1
102
RTVSPropertyOp20
 70
     1
102
RTVSPropertyOp21
 70
     1
102
RTVSPropertyOp22
 70
     1
102
RTVSPropertyOp23
 70
     1
102
RTVSPropertyOp24
 70
     1
102
RTVSPropertyOp25
 70
     1
102
RTVSPropertyOp26
 70
     1
102
RTVSPropertyOp27
 70
     1
102
RTVSPropertyOp28
 70
     1
102
RTVSPropertyOp29
 70
     1
102
RTVSPropertyOp30
 70
     1
102
RTVSPropertyOp31
 70
     1
102
RTVSPropertyOp32
 70
     1
102
RTVSPropertyOp33
 70
     1
102
RTVSPropertyOp34
 70
     1
102
RTVSPropertyOp35
 70
     1
102
RTVSPropertyOp36
 70
     1
102
RTVSPropertyOp37
 70
     1
102
RTVSPropertyOp38
 70
     1
102
RTVSPropertyOp39
 70
     1
102
RTVSPropertyOp40
 70
     1
102
RTVSPropertyOp41
 70
     1
102
RTVSPropertyOp42
 70
     1
102
RTVSPropertyOp43
 70
     1
102
RTVSPropertyOp44
 70
     1
102
RTVSPropertyOp45
 70
     1
102
RTVSPropertyOp46
 70
     1
102
RTVSPropertyOp47
 70
     1
102
RTVSPropertyOp48
 70
     1
102
RTVSPropertyOp49
 70
     1
102
RTVSPropertyOp50
 70
     1
102
RTVSPropertyOp51
 70
     0
102
RTVSPropertyOp52
 70
     0
102
RTVSPropertyOp53
 70
     1
102
RTVSPropertyOp54
 70
     1
102
RTVSPropertyOp55
 70
     1
102
RTVSPropertyOp56
 70
     1
102
RTVSPropertyOp57
 70
     1
102
RTVSPost2010Prop28
280
     0
102
RTVSPost2010PropOp28
 70
     1
102
RTVSPost2010Prop29
280
     1
102
RTVSPost2010PropOp29
 70
     1
102
RTVSPost2010Prop30
280
     1
102
RTVSPost2010PropOp30
 70
     1
102
RTVSPost2010Prop31
280
     0
102
RTVSPost2010PropOp31
 70
     1
102
RTVSPost2010Prop32
280
     0
102
RTVSPost2010PropOp32
 70
     1
102
RTVSPost2010Prop33
280
     0
102
RTVSPost2010PropOp33
 70
     1
102
RTVSPost2010Prop34
280
     0
102
RTVSPost2010PropOp34
 70
     1
102
RTVSPost2010Prop35
280
     0
102
RTVSPost2010PropOp35
 70
     1
102
RTVSPost2010Prop36
280
     0
102
RTVSPost2010PropOp36
 70
     1
102
RTVSPost2010Prop37
 90
       50
102
RTVSPost2010PropOp37
 70
     1
102
RTVSPost2010Prop38
140
0.0
102
RTVSPost2010PropOp38
 70
     1
102
RTVSPost2010Prop39
140
1.0
102
RTVSPost2010PropOp39
 70
     1
102
RTVSPost2010Prop40
 90
        0
102
RTVSPost2010PropOp40
 70
     1
102
RTVSPost2010Prop41ColorIndex
 90
       18
102
RTVSPost2010Prop41ColorRGB
 90
        0
102
RTVSPost2010PropOp41
 70
     1
102
RTVSPost2010Prop42
 90
       50
102
RTVSPost2010PropOp42
 70
     1
102
RTVSPost2010Prop43
 90
        3
102
RTVSPost2010PropOp43
 70
     1
102
RTVSPost2010Prop44ColorIndex
 90
        5
102
RTVSPost2010Prop44ColorRGB
 90
      255
102
RTVSPost2010PropOp44
 70
     1
102
RTVSPost2010Prop45
280
     0
102
RTVSPost2010PropOp45
 70
     1
102
RTVSPost2010Prop46
 90
       50
102
RTVSPost2010PropOp46
 70
     1
102
RTVSPost2010Prop47
 90
       50
102
RTVSPost2010PropOp47
 70
     1
102
RTVSPost2010Prop48
 90
       50
102
RTVSPost2010PropOp48
 70
     1
102
RTVSPost2010Prop49
280
     0
102
RTVSPost2010PropOp49
 70
     1
102
RTVSPost2010Prop50
 90
       50
102
RTVSPost2010PropOp50
 70
     1
102
RTVSPost2010Prop51ColorIndex
 90
      256
102
RTVSPost2010Prop51ColorRGB
 90
-16777216
102
RTVSPost2010PropOp51
 70
     0
102
RTVSPost2010Prop52
140
1.0
102
RTVSPost2010PropOp52
 70
     0
102
RTVSPost2010Prop53
 90
        2
102
RTVSPost2010PropOp53
 70
     1
102
RTVSPost2010Prop54
  1
strokes_ogs.tif
102
RTVSPost2010PropOp54
 70
     1
102
RTVSPost2010Prop55
280
     0
102
RTVSPost2010PropOp55
 70
     1
102
RTVSPost2010Prop56
140
1.0
102
RTVSPost2010PropOp56
 70
     1
102
RTVSPost2010Prop57
140
1.0
102
RTVSPost2010PropOp57
 70
     1
  0
XRECORD
  5
139
102
{ACAD_REACTORS
330
138
102
}
330
138
100
AcDbXrecord
280
     1
102
RTVSPropertyOp0
 70
     1
102
RTVSPropertyOp1
 70
     1
102
RTVSPropertyOp2
 70
     1
102
RTVSPropertyOp3
 70
     1
102
RTVSPropertyOp4
 70
     1
102
RTVSPropertyOp5
 70
     1
102
RTVSPropertyOp6
 70
     1
102
RTVSPropertyOp7
 70
     1
102
RTVSPropertyOp8
 70
     1
102
RTVSPropertyOp9
 70
     1
102
RTVSPropertyOp10
 70
     1
102
RTVSPropertyOp11
 70
     1
102
RTVSPropertyOp12
 70
     1
102
RTVSPropertyOp13
 70
     1
102
RTVSPropertyOp14
 70
     1
102
RTVSPropertyOp15
 70
     1
102
RTVSPropertyOp16
 70
     1
102
RTVSPropertyOp17
 70
     1
102
RTVSPropertyOp18
 70
     1
102
RTVSPropertyOp19
 70
     1
102
RTVSPropertyOp20
 70
     1
102
RTVSPropertyOp21
 70
     1
102
RTVSPropertyOp22
 70
     1
102
RTVSPropertyOp23
 70
     1
102
RTVSPropertyOp24
 70
     1
102
RTVSPropertyOp25
 70
     1
102
RTVSPropertyOp26
 70
     1
102
RTVSPropertyOp27
 70
     1
102
RTVSPropertyOp28
 70
     1
102
RTVSPropertyOp29
 70
     1
102
RTVSPropertyOp30
 70
     1
102
RTVSPropertyOp31
 70
     1
102
RTVSPropertyOp32
 70
     1
102
RTVSPropertyOp33
 70
     1
102
RTVSPropertyOp34
 70
     1
102
RTVSPropertyOp35
 70
     1
102
RTVSPropertyOp36
 70
     1
102
RTVSPropertyOp37
 70
     1
102
RTVSPropertyOp38
 70
     1
102
RTVSPropertyOp39
 70
     1
102
RTVSPropertyOp40
 70
     1
102
RTVSPropertyOp41
 70
     1
102
RTVSPropertyOp42
 70
     1
102
RTVSPropertyOp43
 70
     1
102
RTVSPropertyOp44
 70
     1
102
RTVSPropertyOp45
 70
     1
102
RTVSPropertyOp46
 70
     1
102
RTVSPropertyOp47
 70
     1
102
RTVSPropertyOp48
 70
     1
102
RTVSPropertyOp49
 70
     1
102
RTVSPropertyOp50
 70
     1
102
RTVSPropertyOp51
 70
     0
102
RTVSPropertyOp52
 70
     0
102
RTVSPropertyOp53
 70
     1
102
RTVSPropertyOp54
 70
     1
102
RTVSPropertyOp55
 70
     1
102
RTVSPropertyOp56
 70
     1
102
RTVSPropertyOp57
 70
     1
102
RTVSPost2010Prop28
280
     0
102
RTVSPost2010PropOp28
 70
     1
102
RTVSPost2010Prop29
280
     1
102
RTVSPost2010PropOp29
 70
     1
102
RTVSPost2010Prop30
280
     1
102
RTVSPost2010PropOp30
 70
     1
102
RTVSPost2010Prop31
280
     0
102
RTVSPost2010PropOp31
 70
     1
102
RTVSPost2010Prop32
280
     0
102
RTVSPost2010PropOp32
 70
     1
102
RTVSPost2010Prop33
280
     0
102
RTVSPost2010PropOp33
 70
     1
102
RTVSPost2010Prop34
280
     0
102
RTVSPost2010PropOp34
 70
     1
102
RTVSPost2010Prop35
280
     0
102
RTVSPost2010PropOp35
 70
     1
102
RTVSPost2010Prop36
280
     0
102
RTVSPost2010PropOp36
 70
     1
102
RTVSPost2010Prop37
 90
       50
102
RTVSPost2010PropOp37
 70
     1
102
RTVSPost2010Prop38
140
0.0
102
RTVSPost2010PropOp38
 70
     1
102
RTVSPost2010Prop39
140
1.0
102
RTVSPost2010PropOp39
 70
     1
102
RTVSPost2010Prop40
 90
        0
102
RTVSPost2010PropOp40
 70
     1
102
RTVSPost2010Prop41ColorIndex
 90
       18
102
RTVSPost2010Prop41ColorRGB
 90
        0
102
RTVSPost2010PropOp41
 70
     1
102
RTVSPost2010Prop42
 90
       50
102
RTVSPost2010PropOp42
 70
     1
102
RTVSPost2010Prop43
 90
        3
102
RTVSPost2010PropOp43
 70
     1
102
RTVSPost2010Prop44ColorIndex
 90
        5
102
RTVSPost2010Prop44ColorRGB
 90
      255
102
RTVSPost2010PropOp44
 70
     1
102
RTVSPost2010Prop45
280
     0
102
RTVSPost2010PropOp45
 70
     1
102
RTVSPost2010Prop46
 90
       50
102
RTVSPost2010PropOp46
 70
     1
102
RTVSPost2010Prop47
 90
       50
102
RTVSPost2010PropOp47
 70
     1
102
RTVSPost2010Prop48
 90
       50
102
RTVSPost2010PropOp48
 70
     1
102
RTVSPost2010Prop49
280
     0
102
RTVSPost2010PropOp49
 70
     1
102
RTVSPost2010Prop50
 90
       50
102
RTVSPost2010PropOp50
 70
     1
102
RTVSPost2010Prop51ColorIndex
 90
      256
102
RTVSPost2010Prop51ColorRGB
 90
-16777216
102
RTVSPost2010PropOp51
 70
     0
102
RTVSPost2010Prop52
140
1.0
102
RTVSPost2010PropOp52
 70
     0
102
RTVSPost2010Prop53
 90
        2
102
RTVSPost2010PropOp53
 70
     1
102
RTVSPost2010Prop54
  1
strokes_ogs.tif
102
RTVSPost2010PropOp54
 70
     1
102
RTVSPost2010Prop55
280
     0
102
RTVSPost2010PropOp55
 70
     1
102
RTVSPost2010Prop56
140
1.0
102
RTVSPost2010PropOp56
 70
     1
102
RTVSPost2010Prop57
140
1.0
102
RTVSPost2010PropOp57
 70
     1
  0
XRECORD
  5
159
102
{ACAD_REACTORS
330
158
102
}
330
158
100
AcDbXrecord
280
     1
102
RTVSPropertyOp0
 70
     1
102
RTVSPropertyOp1
 70
     1
102
RTVSPropertyOp2
 70
     1
102
RTVSPropertyOp3
 70
     1
102
RTVSPropertyOp4
 70
     1
102
RTVSPropertyOp5
 70
     1
102
RTVSPropertyOp6
 70
     1
102
RTVSPropertyOp7
 70
     1
102
RTVSPropertyOp8
 70
     1
102
RTVSPropertyOp9
 70
     1
102
RTVSPropertyOp10
 70
     1
102
RTVSPropertyOp11
 70
     1
102
RTVSPropertyOp12
 70
     1
102
RTVSPropertyOp13
 70
     1
102
RTVSPropertyOp14
 70
     1
102
RTVSPropertyOp15
 70
     1
102
RTVSPropertyOp16
 70
     1
102
RTVSPropertyOp17
 70
     1
102
RTVSPropertyOp18
 70
     1
102
RTVSPropertyOp19
 70
     1
102
RTVSPropertyOp20
 70
     1
102
RTVSPropertyOp21
 70
     1
102
RTVSPropertyOp22
 70
     1
102
RTVSPropertyOp23
 70
     1
102
RTVSPropertyOp24
 70
     1
102
RTVSPropertyOp25
 70
     1
102
RTVSPropertyOp26
 70
     1
102
RTVSPropertyOp27
 70
     1
102
RTVSPropertyOp28
 70
     1
102
RTVSPropertyOp29
 70
     1
102
RTVSPropertyOp30
 70
     1
102
RTVSPropertyOp31
 70
     1
102
RTVSPropertyOp32
 70
     1
102
RTVSPropertyOp33
 70
     1
102
RTVSPropertyOp34
 70
     1
102
RTVSPropertyOp35
 70
     1
102
RTVSPropertyOp36
 70
     1
102
RTVSPropertyOp37
 70
     1
102
RTVSPropertyOp38
 70
     1
102
RTVSPropertyOp39
 70
     1
102
RTVSPropertyOp40
 70
     1
102
RTVSPropertyOp41
 70
     1
102
RTVSPropertyOp42
 70
     1
102
RTVSPropertyOp43
 70
     1
102
RTVSPropertyOp44
 70
     1
102
RTVSPropertyOp45
 70
     1
102
RTVSPropertyOp46
 70
     1
102
RTVSPropertyOp47
 70
     1
102
RTVSPropertyOp48
 70
     1
102
RTVSPropertyOp49
 70
     1
102
RTVSPropertyOp50
 70
     1
102
RTVSPropertyOp51
 70
     0
102
RTVSPropertyOp52
 70
     0
102
RTVSPropertyOp53
 70
     1
102
RTVSPropertyOp54
 70
     1
102
RTVSPropertyOp55
 70
     1
102
RTVSPropertyOp56
 70
     1
102
RTVSPropertyOp57
 70
     1
102
RTVSPost2010Prop28
280
     0
102
RTVSPost2010PropOp28
 70
     1
102
RTVSPost2010Prop29
280
     1
102
RTVSPost2010PropOp29
 70
     1
102
RTVSPost2010Prop30
280
     1
102
RTVSPost2010PropOp30
 70
     1
102
RTVSPost2010Prop31
280
     0
102
RTVSPost2010PropOp31
 70
     1
102
RTVSPost2010Prop32
280
     0
102
RTVSPost2010PropOp32
 70
     1
102
RTVSPost2010Prop33
280
     0
102
RTVSPost2010PropOp33
 70
     1
102
RTVSPost2010Prop34
280
     0
102
RTVSPost2010PropOp34
 70
     1
102
RTVSPost2010Prop35
280
     0
102
RTVSPost2010PropOp35
 70
     1
102
RTVSPost2010Prop36
280
     0
102
RTVSPost2010PropOp36
 70
     1
102
RTVSPost2010Prop37
 90
       50
102
RTVSPost2010PropOp37
 70
     1
102
RTVSPost2010Prop38
140
0.0
102
RTVSPost2010PropOp38
 70
     1
102
RTVSPost2010Prop39
140
1.0
102
RTVSPost2010PropOp39
 70
     1
102
RTVSPost2010Prop40
 90
        0
102
RTVSPost2010PropOp40
 70
     1
102
RTVSPost2010Prop41ColorIndex
 90
       18
102
RTVSPost2010Prop41ColorRGB
 90
        0
102
RTVSPost2010PropOp41
 70
     1
102
RTVSPost2010Prop42
 90
       50
102
RTVSPost2010PropOp42
 70
     1
102
RTVSPost2010Prop43
 90
        3
102
RTVSPost2010PropOp43
 70
     1
102
RTVSPost2010Prop44ColorIndex
 90
        5
102
RTVSPost2010Prop44ColorRGB
 90
      255
102
RTVSPost2010PropOp44
 70
     1
102
RTVSPost2010Prop45
280
     0
102
RTVSPost2010PropOp45
 70
     1
102
RTVSPost2010Prop46
 90
       50
102
RTVSPost2010PropOp46
 70
     1
102
RTVSPost2010Prop47
 90
       50
102
RTVSPost2010PropOp47
 70
     1
102
RTVSPost2010Prop48
 90
       50
102
RTVSPost2010PropOp48
 70
     1
102
RTVSPost2010Prop49
280
     0
102
RTVSPost2010PropOp49
 70
     1
102
RTVSPost2010Prop50
 90
       50
102
RTVSPost2010PropOp50
 70
     1
102
RTVSPost2010Prop51ColorIndex
 90
      256
102
RTVSPost2010Prop51ColorRGB
 90
-16777216
102
RTVSPost2010PropOp51
 70
     0
102
RTVSPost2010Prop52
140
1.0
102
RTVSPost2010PropOp52
 70
     0
102
RTVSPost2010Prop53
 90
        2
102
RTVSPost2010PropOp53
 70
     1
102
RTVSPost2010Prop54
  1
strokes_ogs.tif
102
RTVSPost2010PropOp54
 70
     1
102
RTVSPost2010Prop55
280
     0
102
RTVSPost2010PropOp55
 70
     1
102
RTVSPost2010Prop56
140
1.0
102
RTVSPost2010PropOp56
 70
     1
102
RTVSPost2010Prop57
140
1.0
102
RTVSPost2010PropOp57
 70
     1
  0
ENDSEC
  0
EOF
